  0
SECTION
  2
HEADER
  9
$ACADVER
  1
AC1009
  9
$INSBASE
 10
0.0
 20
0.0
 30
0.0
  9
$EXTMIN
 10
10.93427266097596
 20
0.3840157494695315
 30
0.0
  9
$EXTMAX
 10
16.72090417179918
 20
6.3174447384334877
 30
0.0
  9
$LIMMIN
 10
0.0
 20
0.0
  9
$LIMMAX
 10
12.0
 20
9.0
  9
$ORTHOMODE
 70
     1
  9
$REGENMODE
 70
     0
  9
$FILLMODE
 70
     1
  9
$QTEXTMODE
 70
     0
  9
$MIRRTEXT
 70
     0
  9
$DRAGMODE
 70
     2
  9
$LTSCALE
 40
1.0
  9
$OSMODE
 70
    55
  9
$ATTMODE
 70
     1
  9
$TEXTSIZE
 40
0.2
  9
$TRACEWID
 40
0.05
  9
$TEXTSTYLE
  7
STANDARD
  9
$CLAYER
  8
0
  9
$CELTYPE
  6
BYLAYER
  9
$CECOLOR
 62
   256
  9
$DIMSCALE
 40
1.0
  9
$DIMASZ
 40
0.125
  9
$DIMEXO
 40
0.0625
  9
$DIMDLI
 40
0.38
  9
$DIMRND
 40
0.0
  9
$DIMDLE
 40
0.0
  9
$DIMEXE
 40
0.18
  9
$DIMTP
 40
0.0
  9
$DIMTM
 40
0.0
  9
$DIMTXT
 40
0.09375
  9
$DIMCEN
 40
-0.125
  9
$DIMTSZ
 40
0.0
  9
$DIMTOL
 70
     0
  9
$DIMLIM
 70
     0
  9
$DIMTIH
 70
     0
  9
$DIMTOH
 70
     0
  9
$DIMSE1
 70
     0
  9
$DIMSE2
 70
     0
  9
$DIMTAD
 70
     0
  9
$DIMZIN
 70
     3
  9
$DIMBLK
  1

  9
$DIMASO
 70
     0
  9
$DIMSHO
 70
     1
  9
$DIMPOST
  1

  9
$DIMAPOST
  1

  9
$DIMALT
 70
     0
  9
$DIMALTD
 70
     2
  9
$DIMALTF
 40
25.399999999999999
  9
$DIMLFAC
 40
1.0
  9
$DIMTOFL
 70
     1
  9
$DIMTVP
 40
0.0
  9
$DIMTIX
 70
     0
  9
$DIMSOXD
 70
     0
  9
$DIMSAH
 70
     0
  9
$DIMBLK1
  1

  9
$DIMBLK2
  1

  9
$DIMSTYLE
  2
STANDARD
  9
$DIMCLRD
 70
     0
  9
$DIMCLRE
 70
     0
  9
$DIMCLRT
 70
     0
  9
$DIMTFAC
 40
1.0
  9
$DIMGAP
 40
0.09
  9
$LUNITS
 70
     4
  9
$LUPREC
 70
     4
  9
$SKETCHINC
 40
0.1
  9
$FILLETRAD
 40
0.0
  9
$AUNITS
 70
     0
  9
$AUPREC
 70
     4
  9
$MENU
  1
.
  9
$ELEVATION
 40
0.0
  9
$PELEVATION
 40
0.0
  9
$THICKNESS
 40
0.0
  9
$LIMCHECK
 70
     0
  9
$BLIPMODE
 70
     0
  9
$CHAMFERA
 40
0.125
  9
$CHAMFERB
 40
0.5
  9
$SKPOLY
 70
     0
  9
$TDCREATE
 40
2451086.9109346061
  9
$TDUPDATE
 40
2453913.5797699541
  9
$TDINDWG
 40
1.1555504513999999
  9
$TDUSRTIMER
 40
1.1555504513999999
  9
$USRTIMER
 70
     1
  9
$ANGBASE
 50
0.0
  9
$ANGDIR
 70
     0
  9
$PDMODE
 70
    34
  9
$PDSIZE
 40
3.0
  9
$PLINEWID
 40
0.0
  9
$COORDS
 70
     1
  9
$SPLFRAME
 70
     0
  9
$SPLINETYPE
 70
     6
  9
$SPLINESEGS
 70
     8
  9
$ATTDIA
 70
     0
  9
$ATTREQ
 70
     1
  9
$HANDLING
 70
     1
  9
$HANDSEED
  5
BD4
  9
$SURFTAB1
 70
     6
  9
$SURFTAB2
 70
     6
  9
$SURFTYPE
 70
     6
  9
$SURFU
 70
     6
  9
$SURFV
 70
     6
  9
$UCSNAME
  2

  9
$UCSORG
 10
0.0
 20
0.0
 30
0.0
  9
$UCSXDIR
 10
1.0
 20
0.0
 30
0.0
  9
$UCSYDIR
 10
0.0
 20
1.0
 30
0.0
  9
$PUCSNAME
  2

  9
$PUCSORG
 10
0.0
 20
0.0
 30
0.0
  9
$PUCSXDIR
 10
1.0
 20
0.0
 30
0.0
  9
$PUCSYDIR
 10
0.0
 20
1.0
 30
0.0
  9
$USERI1
 70
     0
  9
$USERI2
 70
     0
  9
$USERI3
 70
     0
  9
$USERI4
 70
     0
  9
$USERI5
 70
     0
  9
$USERR1
 40
0.0
  9
$USERR2
 40
0.0
  9
$USERR3
 40
0.0
  9
$USERR4
 40
0.0
  9
$USERR5
 40
0.0
  9
$WORLDVIEW
 70
     1
  9
$SHADEDGE
 70
     3
  9
$SHADEDIF
 70
    70
  9
$TILEMODE
 70
     1
  9
$MAXACTVP
 70
    48
  9
$PLIMCHECK
 70
     0
  9
$PEXTMIN
 10
10.196683879665001
 20
2.203722123778141
 30
0.0
  9
$PEXTMAX
 10
15.876302761037
 20
6.9308573148542871
 30
0.0
  9
$PLIMMIN
 10
-0.1579164520023376
 20
-0.2812499887361301
  9
$PLIMMAX
 10
10.84208330770177
 20
8.2187497709679782
  9
$UNITMODE
 70
     0
  9
$VISRETAIN
 70
     1
  9
$PLINEGEN
 70
     0
  9
$PSLTSCALE
 70
     1
  0
ENDSEC
  0
SECTION
  2
TABLES
  0
TABLE
  2
VPORT
 70
     2
  0
VPORT
  2
*ACTIVE
 70
     0
 10
0.0
 20
0.0
 11
1.0
 21
1.0
 12
0.6820102183038515
 22
-1.3479930501515189
 13
0.0
 23
0.0
 14
0.5
 24
0.5
 15
0.5
 25
0.5
 16
0.0
 26
0.0
 36
1.0
 17
14.12843039771527
 27
4.5672897193162134
 37
0.0
 40
7.8715411121764687
 41
2.3227848101265818
 42
50.0
 43
0.0
 44
0.0
 50
0.0
 51
0.0
 71
     0
 72
   100
 73
     1
 74
     1
 75
     0
 76
     0
 77
     0
 78
     0
  0
ENDTAB
  0
TABLE
  2
LTYPE
 70
    18
  0
LTYPE
  2
CONTINUOUS
 70
     0
  3
Solid line
 72
    65
 73
     0
 40
0.0
  0
LTYPE
  2
HIDDEN
 70
     0
  3
__ __ __ __ __ __ __ __ __ __ __ __ __ __ __ __
 72
    65
 73
     2
 40
0.375
 49
0.25
 49
-0.125
  0
LTYPE
  2
PHANTOM2
 70
     0
  3
Phantom (.5x) ___ _ _ ___ _ _ ___ _ _ ___ _ _
 72
    65
 73
     6
 40
1.25
 49
0.625
 49
-0.125
 49
0.125
 49
-0.125
 49
0.125
 49
-0.125
  0
LTYPE
  2
CENTER
 70
     0
  3
Center ____ _ ____ _ ____ _ ____ _ ____ _ ____
 72
    65
 73
     4
 40
2.0
 49
1.25
 49
-0.25
 49
0.25
 49
-0.25
  0
LTYPE
  2
ASULTYPE
 70
     0
  3
Solid line
 72
    65
 73
     2
 40
3.0
 49
2.5
 49
0.5
  0
LTYPE
  2
ASVLTYPE
 70
     0
  3
__ __ __ __ __ __ __ __ __ __ __ __ __ __ __ __ __ __ __ __ __
 72
    65
 73
     2
 40
0.75
 49
0.5
 49
-0.25
  0
LTYPE
  2
AM_ISO02W050
 70
     0
  3
__ __ __ __ __ __ __ __ __ __ __ __ __ __ __
 72
    65
 73
     2
 40
7.5
 49
6.0
 49
-1.5
  0
LTYPE
  2
AM_ISO08W050
 70
     0
  3
____ . ____ . ____ . ____ . ____ . ____ . ____
 72
    65
 73
     4
 40
18.0
 49
12.0
 49
-1.5
 49
3.0
 49
-1.5
  0
LTYPE
  2
AM_ISO09W050
 70
     0
  3
_____ . . _____ . . _____ . . ____ .. ____
 72
    65
 73
     6
 40
22.5
 49
12.0
 49
-1.5
 49
3.0
 49
-1.5
 49
3.0
 49
-1.5
  0
LTYPE
  2
AMCONSTR
 70
     0
  3
_______________________
 72
    65
 73
     2
 40
9999.0
 49
9999.0
 49
0.0
  0
LTYPE
  2
AM_ISO08W050X2
 70
     0
  3
__ . __ . __ . __ . __ . __
 72
    65
 73
     4
 40
9.0
 49
6.0
 49
-0.75
 49
1.5
 49
-0.75
  0
LTYPE
  2
AM_ISO02W050X2
 70
     0
  3
 _ _ _ _ _ _ _ _ _ _ _ _
 72
    65
 73
     2
 40
3.75
 49
3.0
 49
-0.75
  0
LTYPE
  2
AMZIGZAG
 70
     0
  3
/\/-/\/-/\/-/\/-/\/-/\/
 72
    65
 73
     2
 40
11.0001
 49
0.0001
 49
-11.0
  0
LTYPE
  2
CENTER2
 70
     0
  3
Center (.5x) ___ _ ___ _ ___ _ ___ _ ___ _ ___
 72
    65
 73
     4
 40
1.125
 49
0.75
 49
-0.125
 49
0.125
 49
-0.125
  0
LTYPE
  2
HIDDEN2
 70
     0
  3
Hidden (.5x) _ _ _ _ _ _ _ _ _ _ _ _ _ _ _ _ _
 72
    65
 73
     2
 40
0.1875
 49
0.125
 49
-0.0625
  0
LTYPE
  2
AMZIGZAG2
 70
     0
  3
/\/-/\/-/\/-/\/-/\/-/\/
 72
    65
 73
     2
 40
0.4401
 49
0.0001
 49
-0.4400000000000001
  0
LTYPE
  2
ACANSTGB
 70
     0
  3
__ . . __ . .
 72
    65
 73
     6
 40
0.35433070866
 49
0.15748031496
 49
-0.03937007874
 49
0.03937007874
 49
-0.03937007874
 49
0.03937007874
 49
-0.03937007874
  0
LTYPE
  2
ACANSTGL
 70
     0
  3
_ _ _ _ _
 72
    65
 73
     2
 40
0.11811023622
 49
0.07874015748
 49
-0.03937007874
  0
ENDTAB
  0
TABLE
  2
LAYER
 70
     3
  0
LAYER
  2
0
 70
     0
 62
     7
  6
CONTINUOUS
  0
LAYER
  2
AM_VIS
 70
     0
 62
     7
  6
CONTINUOUS
  0
LAYER
  2
AM_HID
 70
     0
 62
     7
  6
HIDDEN
  0
ENDTAB
  0
TABLE
  2
STYLE
 70
     4
  0
STYLE
  2
STANDARD
 70
     0
 40
0.0
 41
1.0
 50
0.0
 71
     0
 42
0.2
  3
txt
  4

  0
STYLE
  2

 70
     1
 40
0.0
 41
1.0
 50
0.0
 71
     0
 42
0.2
  3
ltypeshp.shx
  4

  0
STYLE
  2
ACANSTS
 70
     0
 40
1.0
 41
1.0
 50
0.0
 71
     0
 42
0.2
  3
romans.shx
  4

  0
STYLE
  2
ACANSGDT
 70
     0
 40
0.0
 41
1.0
 50
0.0
 71
     0
 42
0.2
  3
amgdtans.shx
  4

  0
ENDTAB
  0
TABLE
  2
VIEW
 70
     0
  0
ENDTAB
  0
TABLE
  2
UCS
 70
     0
  0
ENDTAB
  0
TABLE
  2
APPID
 70
    13
  0
APPID
  2
ACAD
 70
     0
  0
APPID
  2
GENIUS_GENDIM_13
 70
     0
  0
APPID
  2
GENIUS_GENDTOL_13
 70
     0
  0
APPID
  2
GENIUS_GE3DTOL_13
 70
     0
  0
APPID
  2
MCAD_NO_VIS
 70
     0
  0
APPID
  2
ACAD_TEMP_GRAPHIC
 70
     0
  0
APPID
  2
AD_DRAW
 70
     0
  0
APPID
  2
ACATTRIBSERVICES
 70
     0
  0
APPID
  2
ASURF_PCURVE_APPNAME
 70
     0
  0
APPID
  2
AMG_3D2D_5_0
 70
     0
  0
APPID
  2
DESIGNERASSEMBLIES
 70
     0
  0
APPID
  2
ACADM_DIM_EDIT
 70
     0
  0
APPID
  2
AMDT_DM_ADJ
 70
     0
  0
ENDTAB
  0
TABLE
  2
DIMSTYLE
 70
     7
  0
DIMSTYLE
  2
STANDARD
 70
     0
  3

  4

  5

  6

  7

 40
1.0
 41
0.18
 42
0.0625
 43
0.38
 44
0.18
 45
0.0
 46
0.0
 47
0.0
 48
0.0
140
0.18
141
0.09
142
0.0
143
25.399999999999999
144
1.0
145
0.0
146
1.0
147
0.09
 71
     0
 72
     0
 73
     1
 74
     1
 75
     0
 76
     0
 77
     0
 78
     0
170
     0
171
     2
172
     0
173
     0
174
     0
175
     0
176
     0
177
     0
178
     0
  0
DIMSTYLE
  2
AM_ANSI
 70
     0
  3

  4
mm
  5

  6

  7

 40
1.0
 41
0.1
 42
0.05
 43
0.5
 44
0.1
 45
0.0
 46
0.0
 47
0.1
 48
0.1
140
0.12
141
0.0
142
0.0
143
25.399999999999999
144
1.0
145
0.0
146
0.71
147
0.06
 71
     0
 72
     0
 73
     1
 74
     1
 75
     0
 76
     0
 77
     0
 78
     7
170
     0
171
     2
172
     0
173
     0
174
     0
175
     0
176
   256
177
   256
178
     2
  0
DIMSTYLE
  2
AM_ANSI$3
 70
     0
  3

  4
mm
  5

  6

  7

 40
1.0
 41
0.1
 42
0.05
 43
0.5
 44
0.1
 45
0.0
 46
0.0
 47
0.1
 48
0.1
140
0.12
141
0.0
142
0.0
143
25.399999999999999
144
1.0
145
0.0
146
0.71
147
0.06
 71
     0
 72
     0
 73
     1
 74
     1
 75
     0
 76
     0
 77
     0
 78
     7
170
     0
171
     2
172
     0
173
     0
174
     0
175
     0
176
   256
177
   256
178
     2
  0
DIMSTYLE
  2
AM_ANSI$4
 70
     0
  3

  4
mm
  5

  6

  7

 40
1.0
 41
0.1
 42
0.05
 43
0.5
 44
0.1
 45
0.0
 46
0.0
 47
0.1
 48
0.1
140
0.12
141
0.0
142
0.0
143
25.399999999999999
144
1.0
145
0.0
146
0.71
147
0.06
 71
     0
 72
     0
 73
     1
 74
     1
 75
     0
 76
     0
 77
     0
 78
     7
170
     0
171
     2
172
     0
173
     0
174
     0
175
     0
176
   256
177
   256
178
     2
  0
DIMSTYLE
  2
AM_ANSI$7
 70
     0
  3

  4
mm
  5

  6

  7

 40
1.0
 41
0.1
 42
0.05
 43
0.5
 44
0.1
 45
0.0
 46
0.0
 47
0.1
 48
0.1
140
0.24
141
0.0
142
0.0
143
25.399999999999999
144
1.0
145
0.0
146
0.71
147
0.06
 71
     0
 72
     0
 73
     1
 74
     1
 75
     0
 76
     0
 77
     0
 78
     7
170
     0
171
     2
172
     0
173
     0
174
     0
175
     0
176
   256
177
   256
178
     2
  0
DIMSTYLE
  2
AM_ANSI$SF
 70
     0
  3

  4
mm
  5

  6

  7

 40
1.0
 41
0.1
 42
0.05
 43
0.5
 44
0.1
 45
0.0
 46
0.0
 47
0.1
 48
0.1
140
0.12
141
0.0
142
0.0
143
25.399999999999999
144
1.0
145
0.0
146
0.71
147
0.06
 71
     0
 72
     0
 73
     1
 74
     1
 75
     1
 76
     1
 77
     0
 78
     7
170
     0
171
     2
172
     0
173
     0
174
     0
175
     0
176
   256
177
   256
178
     2
  0
DIMSTYLE
  2
AM_ANSI$SH
 70
     0
  3

  4
mm
  5

  6
GENAXEH
  7

 40
1.0
 41
0.1
 42
0.05
 43
0.5
 44
0.1
 45
0.0
 46
0.0
 47
0.1
 48
0.1
140
0.12
141
0.0
142
0.0
143
25.399999999999999
144
1.0
145
0.0
146
0.71
147
0.06
 71
     0
 72
     0
 73
     1
 74
     1
 75
     1
 76
     1
 77
     0
 78
     7
170
     0
171
     2
172
     0
173
     1
174
     0
175
     0
176
   256
177
   256
178
     2
  0
ENDTAB
  0
ENDSEC
  0
SECTION
  2
BLOCKS
  0
BLOCK
  8
0
  2
$MODEL_SPACE
 70
     0
 10
0.0
 20
0.0
 30
0.0
  3
$MODEL_SPACE
  1

  0
ENDBLK
  5
A
  8
0
  0
BLOCK
 67
     1
  8
0
  2
$PAPER_SPACE
 70
     0
 10
0.0
 20
0.0
 30
0.0
  3
$PAPER_SPACE
  1

  0
ENDBLK
  5
F
 67
     1
  8
0
  0
BLOCK
  8
0
  2
*U0
 70
     1
 10
0.0
 20
0.0
 30
0.0
  3
*U0
  1

  0
ENDBLK
  5
113
  8
0
  0
BLOCK
  8
0
  2
GENAXEH
 70
     0
 10
0.0
 20
0.0
 30
0.0
  3
GENAXEH
  1

  0
LINE
  5
151
  8
0
 10
-1.0
 20
0.0
 30
0.0
 11
1.0
 21
0.0
 31
0.0
  0
ENDBLK
  5
153
  8
0
  0
BLOCK
  8
0
  2
*U2
 70
     1
 10
0.0
 20
0.0
 30
0.0
  3
*U2
  1

  0
TEXT
  5
1A1
  8
0
 10
14.731143339916599
 20
1.4180942562301251
 30
0.0
 40
0.084375
  1
60°
 50
36.865966090363052
  0
ENDBLK
  5
1A3
  8
0
  0
BLOCK
  8
0
  2
*U3
 70
     1
 10
0.0
 20
0.0
 30
0.0
  3
*U3
  1

  0
TEXT
  5
1A5
  8
0
 10
14.4708562713344
 20
1.5010657534259739
 30
0.0
 40
0.084375
  1
30° TO 
 50
36.865999999999993
  0
ENDBLK
  5
1A7
  8
0
  0
ENDSEC
  0
SECTION
  2
ENTITIES
  0
LINE
  5
25
  8
AM_VIS
 10
13.00427266097596
 20
3.4608000793430609
 30
0.0
 11
12.291749778104469
 21
4.6949259140319297
 31
0.0
  0
LINE
  5
27
  8
AM_HID
 10
12.291749778104951
 20
4.6949259140310904
 30
0.0
 11
11.96927266097596
 21
5.2534726651768491
 31
0.0
  0
LINE
  5
2A
  8
AM_VIS
 10
14.188542792212729
 20
2.7770614002802789
 30
0.0
 11
15.223542792212729
 21
4.5697339861140671
 31
0.0
  0
POLYLINE
  8
AM_VIS
  5
1A8
  66
     1
 10
0.000000
 20
0.000000
 30
0.000000
  70
     8
  0
VERTEX
  8
AM_VIS
  5
1A9
 10
12.3400
 20
5.03946
 30
0.000000
  70
    32
  0
VERTEX
  8
AM_VIS
  5
1AA
 10
12.3397
 20
5.03805
 30
0.000000
  70
    32
  0
VERTEX
  8
AM_VIS
  5
1AB
 10
12.3394
 20
5.03665
 30
0.000000
  70
    32
  0
VERTEX
  8
AM_VIS
  5
1AC
 10
12.3392
 20
5.03525
 30
0.000000
  70
    32
  0
VERTEX
  8
AM_VIS
  5
1AD
 10
12.3389
 20
5.03385
 30
0.000000
  70
    32
  0
VERTEX
  8
AM_VIS
  5
1AE
 10
12.3386
 20
5.03245
 30
0.000000
  70
    32
  0
VERTEX
  8
AM_VIS
  5
1AF
 10
12.3384
 20
5.03106
 30
0.000000
  70
    32
  0
VERTEX
  8
AM_VIS
  5
1B0
 10
12.3381
 20
5.02967
 30
0.000000
  70
    32
  0
VERTEX
  8
AM_VIS
  5
1B1
 10
12.3378
 20
5.02829
 30
0.000000
  70
    32
  0
VERTEX
  8
AM_VIS
  5
1B2
 10
12.3376
 20
5.02691
 30
0.000000
  70
    32
  0
VERTEX
  8
AM_VIS
  5
1B3
 10
12.3373
 20
5.02553
 30
0.000000
  70
    32
  0
VERTEX
  8
AM_VIS
  5
1B4
 10
12.3370
 20
5.02415
 30
0.000000
  70
    32
  0
VERTEX
  8
AM_VIS
  5
1B5
 10
12.3367
 20
5.02278
 30
0.000000
  70
    32
  0
VERTEX
  8
AM_VIS
  5
1B6
 10
12.3364
 20
5.02141
 30
0.000000
  70
    32
  0
VERTEX
  8
AM_VIS
  5
1B7
 10
12.3361
 20
5.02004
 30
0.000000
  70
    32
  0
VERTEX
  8
AM_VIS
  5
1B8
 10
12.3359
 20
5.01867
 30
0.000000
  70
    32
  0
VERTEX
  8
AM_VIS
  5
1B9
 10
12.3356
 20
5.01731
 30
0.000000
  70
    32
  0
VERTEX
  8
AM_VIS
  5
1BA
 10
12.3353
 20
5.01595
 30
0.000000
  70
    32
  0
VERTEX
  8
AM_VIS
  5
1BB
 10
12.3350
 20
5.01459
 30
0.000000
  70
    32
  0
VERTEX
  8
AM_VIS
  5
1BC
 10
12.3347
 20
5.01324
 30
0.000000
  70
    32
  0
VERTEX
  8
AM_VIS
  5
1BD
 10
12.3344
 20
5.01189
 30
0.000000
  70
    32
  0
VERTEX
  8
AM_VIS
  5
1BE
 10
12.3341
 20
5.01054
 30
0.000000
  70
    32
  0
VERTEX
  8
AM_VIS
  5
1BF
 10
12.3338
 20
5.00919
 30
0.000000
  70
    32
  0
VERTEX
  8
AM_VIS
  5
1C0
 10
12.3335
 20
5.00785
 30
0.000000
  70
    32
  0
VERTEX
  8
AM_VIS
  5
1C1
 10
12.3332
 20
5.00651
 30
0.000000
  70
    32
  0
VERTEX
  8
AM_VIS
  5
1C2
 10
12.3329
 20
5.00517
 30
0.000000
  70
    32
  0
VERTEX
  8
AM_VIS
  5
1C3
 10
12.3326
 20
5.00383
 30
0.000000
  70
    32
  0
VERTEX
  8
AM_VIS
  5
1C4
 10
12.3322
 20
5.00250
 30
0.000000
  70
    32
  0
VERTEX
  8
AM_VIS
  5
1C5
 10
12.3319
 20
5.00117
 30
0.000000
  70
    32
  0
VERTEX
  8
AM_VIS
  5
1C6
 10
12.3316
 20
4.99984
 30
0.000000
  70
    32
  0
VERTEX
  8
AM_VIS
  5
1C7
 10
12.3313
 20
4.99851
 30
0.000000
  70
    32
  0
VERTEX
  8
AM_VIS
  5
1C8
 10
12.3310
 20
4.99719
 30
0.000000
  70
    32
  0
VERTEX
  8
AM_VIS
  5
1C9
 10
12.3307
 20
4.99587
 30
0.000000
  70
    32
  0
VERTEX
  8
AM_VIS
  5
1CA
 10
12.3303
 20
4.99455
 30
0.000000
  70
    32
  0
VERTEX
  8
AM_VIS
  5
1CB
 10
12.3300
 20
4.99323
 30
0.000000
  70
    32
  0
VERTEX
  8
AM_VIS
  5
1CC
 10
12.3297
 20
4.99192
 30
0.000000
  70
    32
  0
VERTEX
  8
AM_VIS
  5
1CD
 10
12.3294
 20
4.99061
 30
0.000000
  70
    32
  0
VERTEX
  8
AM_VIS
  5
1CE
 10
12.3291
 20
4.98930
 30
0.000000
  70
    32
  0
VERTEX
  8
AM_VIS
  5
1CF
 10
12.3287
 20
4.98799
 30
0.000000
  70
    32
  0
VERTEX
  8
AM_VIS
  5
1D0
 10
12.3284
 20
4.98669
 30
0.000000
  70
    32
  0
VERTEX
  8
AM_VIS
  5
1D1
 10
12.3281
 20
4.98539
 30
0.000000
  70
    32
  0
VERTEX
  8
AM_VIS
  5
1D2
 10
12.3277
 20
4.98409
 30
0.000000
  70
    32
  0
VERTEX
  8
AM_VIS
  5
1D3
 10
12.3274
 20
4.98279
 30
0.000000
  70
    32
  0
VERTEX
  8
AM_VIS
  5
1D4
 10
12.3271
 20
4.98149
 30
0.000000
  70
    32
  0
VERTEX
  8
AM_VIS
  5
1D5
 10
12.3267
 20
4.98020
 30
0.000000
  70
    32
  0
VERTEX
  8
AM_VIS
  5
1D6
 10
12.3264
 20
4.97891
 30
0.000000
  70
    32
  0
VERTEX
  8
AM_VIS
  5
1D7
 10
12.3261
 20
4.97762
 30
0.000000
  70
    32
  0
VERTEX
  8
AM_VIS
  5
1D8
 10
12.3257
 20
4.97633
 30
0.000000
  70
    32
  0
VERTEX
  8
AM_VIS
  5
1D9
 10
12.3254
 20
4.97505
 30
0.000000
  70
    32
  0
VERTEX
  8
AM_VIS
  5
1DA
 10
12.3250
 20
4.97377
 30
0.000000
  70
    32
  0
VERTEX
  8
AM_VIS
  5
1DB
 10
12.3247
 20
4.97249
 30
0.000000
  70
    32
  0
VERTEX
  8
AM_VIS
  5
1DC
 10
12.3244
 20
4.97121
 30
0.000000
  70
    32
  0
VERTEX
  8
AM_VIS
  5
1DD
 10
12.3240
 20
4.96993
 30
0.000000
  70
    32
  0
VERTEX
  8
AM_VIS
  5
1DE
 10
12.3237
 20
4.96866
 30
0.000000
  70
    32
  0
VERTEX
  8
AM_VIS
  5
1DF
 10
12.3233
 20
4.96739
 30
0.000000
  70
    32
  0
VERTEX
  8
AM_VIS
  5
1E0
 10
12.3230
 20
4.96612
 30
0.000000
  70
    32
  0
VERTEX
  8
AM_VIS
  5
1E1
 10
12.3226
 20
4.96485
 30
0.000000
  70
    32
  0
VERTEX
  8
AM_VIS
  5
1E2
 10
12.3223
 20
4.96358
 30
0.000000
  70
    32
  0
VERTEX
  8
AM_VIS
  5
1E3
 10
12.3219
 20
4.96232
 30
0.000000
  70
    32
  0
VERTEX
  8
AM_VIS
  5
1E4
 10
12.3216
 20
4.96105
 30
0.000000
  70
    32
  0
VERTEX
  8
AM_VIS
  5
1E5
 10
12.3212
 20
4.95979
 30
0.000000
  70
    32
  0
VERTEX
  8
AM_VIS
  5
1E6
 10
12.3209
 20
4.95853
 30
0.000000
  70
    32
  0
VERTEX
  8
AM_VIS
  5
1E7
 10
12.3205
 20
4.95728
 30
0.000000
  70
    32
  0
VERTEX
  8
AM_VIS
  5
1E8
 10
12.3202
 20
4.95602
 30
0.000000
  70
    32
  0
VERTEX
  8
AM_VIS
  5
1E9
 10
12.3198
 20
4.95477
 30
0.000000
  70
    32
  0
VERTEX
  8
AM_VIS
  5
1EA
 10
12.3195
 20
4.95352
 30
0.000000
  70
    32
  0
VERTEX
  8
AM_VIS
  5
1EB
 10
12.3191
 20
4.95227
 30
0.000000
  70
    32
  0
VERTEX
  8
AM_VIS
  5
1EC
 10
12.3188
 20
4.95102
 30
0.000000
  70
    32
  0
VERTEX
  8
AM_VIS
  5
1ED
 10
12.3184
 20
4.94977
 30
0.000000
  70
    32
  0
VERTEX
  8
AM_VIS
  5
1EE
 10
12.3180
 20
4.94853
 30
0.000000
  70
    32
  0
VERTEX
  8
AM_VIS
  5
1EF
 10
12.3177
 20
4.94729
 30
0.000000
  70
    32
  0
VERTEX
  8
AM_VIS
  5
1F0
 10
12.3173
 20
4.94604
 30
0.000000
  70
    32
  0
VERTEX
  8
AM_VIS
  5
1F1
 10
12.3170
 20
4.94480
 30
0.000000
  70
    32
  0
VERTEX
  8
AM_VIS
  5
1F2
 10
12.3166
 20
4.94357
 30
0.000000
  70
    32
  0
VERTEX
  8
AM_VIS
  5
1F3
 10
12.3162
 20
4.94233
 30
0.000000
  70
    32
  0
VERTEX
  8
AM_VIS
  5
1F4
 10
12.3159
 20
4.94109
 30
0.000000
  70
    32
  0
VERTEX
  8
AM_VIS
  5
1F5
 10
12.3155
 20
4.93986
 30
0.000000
  70
    32
  0
VERTEX
  8
AM_VIS
  5
1F6
 10
12.3152
 20
4.93863
 30
0.000000
  70
    32
  0
VERTEX
  8
AM_VIS
  5
1F7
 10
12.3148
 20
4.93740
 30
0.000000
  70
    32
  0
VERTEX
  8
AM_VIS
  5
1F8
 10
12.3144
 20
4.93617
 30
0.000000
  70
    32
  0
VERTEX
  8
AM_VIS
  5
1F9
 10
12.3141
 20
4.93494
 30
0.000000
  70
    32
  0
VERTEX
  8
AM_VIS
  5
1FA
 10
12.3137
 20
4.93372
 30
0.000000
  70
    32
  0
VERTEX
  8
AM_VIS
  5
1FB
 10
12.3134
 20
4.93249
 30
0.000000
  70
    32
  0
VERTEX
  8
AM_VIS
  5
1FC
 10
12.3130
 20
4.93127
 30
0.000000
  70
    32
  0
VERTEX
  8
AM_VIS
  5
1FD
 10
12.3126
 20
4.93005
 30
0.000000
  70
    32
  0
VERTEX
  8
AM_VIS
  5
1FE
 10
12.3123
 20
4.92883
 30
0.000000
  70
    32
  0
VERTEX
  8
AM_VIS
  5
1FF
 10
12.3119
 20
4.92761
 30
0.000000
  70
    32
  0
VERTEX
  8
AM_VIS
  5
200
 10
12.3115
 20
4.92639
 30
0.000000
  70
    32
  0
VERTEX
  8
AM_VIS
  5
201
 10
12.3112
 20
4.92517
 30
0.000000
  70
    32
  0
VERTEX
  8
AM_VIS
  5
202
 10
12.3108
 20
4.92396
 30
0.000000
  70
    32
  0
VERTEX
  8
AM_VIS
  5
203
 10
12.3104
 20
4.92274
 30
0.000000
  70
    32
  0
VERTEX
  8
AM_VIS
  5
204
 10
12.3101
 20
4.92153
 30
0.000000
  70
    32
  0
VERTEX
  8
AM_VIS
  5
205
 10
12.3097
 20
4.92032
 30
0.000000
  70
    32
  0
VERTEX
  8
AM_VIS
  5
206
 10
12.3094
 20
4.91911
 30
0.000000
  70
    32
  0
VERTEX
  8
AM_VIS
  5
207
 10
12.3090
 20
4.91790
 30
0.000000
  70
    32
  0
VERTEX
  8
AM_VIS
  5
208
 10
12.3086
 20
4.91670
 30
0.000000
  70
    32
  0
VERTEX
  8
AM_VIS
  5
209
 10
12.3083
 20
4.91549
 30
0.000000
  70
    32
  0
VERTEX
  8
AM_VIS
  5
20A
 10
12.3079
 20
4.91429
 30
0.000000
  70
    32
  0
VERTEX
  8
AM_VIS
  5
20B
 10
12.3075
 20
4.91310
 30
0.000000
  70
    32
  0
VERTEX
  8
AM_VIS
  5
20C
 10
12.3072
 20
4.91190
 30
0.000000
  70
    32
  0
VERTEX
  8
AM_VIS
  5
20D
 10
12.3068
 20
4.91071
 30
0.000000
  70
    32
  0
VERTEX
  8
AM_VIS
  5
20E
 10
12.3065
 20
4.90952
 30
0.000000
  70
    32
  0
VERTEX
  8
AM_VIS
  5
20F
 10
12.3061
 20
4.90833
 30
0.000000
  70
    32
  0
VERTEX
  8
AM_VIS
  5
210
 10
12.3057
 20
4.90715
 30
0.000000
  70
    32
  0
VERTEX
  8
AM_VIS
  5
211
 10
12.3054
 20
4.90596
 30
0.000000
  70
    32
  0
VERTEX
  8
AM_VIS
  5
212
 10
12.3050
 20
4.90478
 30
0.000000
  70
    32
  0
VERTEX
  8
AM_VIS
  5
213
 10
12.3047
 20
4.90361
 30
0.000000
  70
    32
  0
VERTEX
  8
AM_VIS
  5
214
 10
12.3043
 20
4.90243
 30
0.000000
  70
    32
  0
VERTEX
  8
AM_VIS
  5
215
 10
12.3040
 20
4.90126
 30
0.000000
  70
    32
  0
VERTEX
  8
AM_VIS
  5
216
 10
12.3036
 20
4.90009
 30
0.000000
  70
    32
  0
VERTEX
  8
AM_VIS
  5
217
 10
12.3033
 20
4.89892
 30
0.000000
  70
    32
  0
VERTEX
  8
AM_VIS
  5
218
 10
12.3029
 20
4.89775
 30
0.000000
  70
    32
  0
VERTEX
  8
AM_VIS
  5
219
 10
12.3026
 20
4.89659
 30
0.000000
  70
    32
  0
VERTEX
  8
AM_VIS
  5
21A
 10
12.3022
 20
4.89543
 30
0.000000
  70
    32
  0
VERTEX
  8
AM_VIS
  5
21B
 10
12.3019
 20
4.89427
 30
0.000000
  70
    32
  0
VERTEX
  8
AM_VIS
  5
21C
 10
12.3015
 20
4.89311
 30
0.000000
  70
    32
  0
VERTEX
  8
AM_VIS
  5
21D
 10
12.3012
 20
4.89196
 30
0.000000
  70
    32
  0
VERTEX
  8
AM_VIS
  5
21E
 10
12.3008
 20
4.89081
 30
0.000000
  70
    32
  0
VERTEX
  8
AM_VIS
  5
21F
 10
12.3005
 20
4.88966
 30
0.000000
  70
    32
  0
VERTEX
  8
AM_VIS
  5
220
 10
12.3001
 20
4.88851
 30
0.000000
  70
    32
  0
VERTEX
  8
AM_VIS
  5
221
 10
12.2998
 20
4.88737
 30
0.000000
  70
    32
  0
VERTEX
  8
AM_VIS
  5
222
 10
12.2995
 20
4.88622
 30
0.000000
  70
    32
  0
VERTEX
  8
AM_VIS
  5
223
 10
12.2991
 20
4.88508
 30
0.000000
  70
    32
  0
VERTEX
  8
AM_VIS
  5
224
 10
12.2988
 20
4.88395
 30
0.000000
  70
    32
  0
VERTEX
  8
AM_VIS
  5
225
 10
12.2984
 20
4.88281
 30
0.000000
  70
    32
  0
VERTEX
  8
AM_VIS
  5
226
 10
12.2981
 20
4.88168
 30
0.000000
  70
    32
  0
VERTEX
  8
AM_VIS
  5
227
 10
12.2978
 20
4.88055
 30
0.000000
  70
    32
  0
VERTEX
  8
AM_VIS
  5
228
 10
12.2974
 20
4.87942
 30
0.000000
  70
    32
  0
VERTEX
  8
AM_VIS
  5
229
 10
12.2971
 20
4.87829
 30
0.000000
  70
    32
  0
VERTEX
  8
AM_VIS
  5
22A
 10
12.2968
 20
4.87717
 30
0.000000
  70
    32
  0
VERTEX
  8
AM_VIS
  5
22B
 10
12.2964
 20
4.87605
 30
0.000000
  70
    32
  0
VERTEX
  8
AM_VIS
  5
22C
 10
12.2961
 20
4.87493
 30
0.000000
  70
    32
  0
VERTEX
  8
AM_VIS
  5
22D
 10
12.2958
 20
4.87381
 30
0.000000
  70
    32
  0
VERTEX
  8
AM_VIS
  5
22E
 10
12.2955
 20
4.87269
 30
0.000000
  70
    32
  0
VERTEX
  8
AM_VIS
  5
22F
 10
12.2951
 20
4.87158
 30
0.000000
  70
    32
  0
VERTEX
  8
AM_VIS
  5
230
 10
12.2948
 20
4.87047
 30
0.000000
  70
    32
  0
VERTEX
  8
AM_VIS
  5
231
 10
12.2945
 20
4.86936
 30
0.000000
  70
    32
  0
VERTEX
  8
AM_VIS
  5
232
 10
12.2942
 20
4.86826
 30
0.000000
  70
    32
  0
VERTEX
  8
AM_VIS
  5
233
 10
12.2939
 20
4.86715
 30
0.000000
  70
    32
  0
VERTEX
  8
AM_VIS
  5
234
 10
12.2936
 20
4.86605
 30
0.000000
  70
    32
  0
VERTEX
  8
AM_VIS
  5
235
 10
12.2932
 20
4.86495
 30
0.000000
  70
    32
  0
VERTEX
  8
AM_VIS
  5
236
 10
12.2929
 20
4.86385
 30
0.000000
  70
    32
  0
VERTEX
  8
AM_VIS
  5
237
 10
12.2926
 20
4.86276
 30
0.000000
  70
    32
  0
VERTEX
  8
AM_VIS
  5
238
 10
12.2923
 20
4.86166
 30
0.000000
  70
    32
  0
VERTEX
  8
AM_VIS
  5
239
 10
12.2920
 20
4.86057
 30
0.000000
  70
    32
  0
VERTEX
  8
AM_VIS
  5
23A
 10
12.2917
 20
4.85948
 30
0.000000
  70
    32
  0
VERTEX
  8
AM_VIS
  5
23B
 10
12.2914
 20
4.85840
 30
0.000000
  70
    32
  0
VERTEX
  8
AM_VIS
  5
23C
 10
12.2911
 20
4.85731
 30
0.000000
  70
    32
  0
VERTEX
  8
AM_VIS
  5
23D
 10
12.2908
 20
4.85623
 30
0.000000
  70
    32
  0
VERTEX
  8
AM_VIS
  5
23E
 10
12.2905
 20
4.85515
 30
0.000000
  70
    32
  0
VERTEX
  8
AM_VIS
  5
23F
 10
12.2902
 20
4.85407
 30
0.000000
  70
    32
  0
VERTEX
  8
AM_VIS
  5
240
 10
12.2899
 20
4.85299
 30
0.000000
  70
    32
  0
VERTEX
  8
AM_VIS
  5
241
 10
12.2896
 20
4.85192
 30
0.000000
  70
    32
  0
VERTEX
  8
AM_VIS
  5
242
 10
12.2894
 20
4.85085
 30
0.000000
  70
    32
  0
VERTEX
  8
AM_VIS
  5
243
 10
12.2891
 20
4.84978
 30
0.000000
  70
    32
  0
VERTEX
  8
AM_VIS
  5
244
 10
12.2888
 20
4.84871
 30
0.000000
  70
    32
  0
VERTEX
  8
AM_VIS
  5
245
 10
12.2885
 20
4.84764
 30
0.000000
  70
    32
  0
VERTEX
  8
AM_VIS
  5
246
 10
12.2882
 20
4.84658
 30
0.000000
  70
    32
  0
VERTEX
  8
AM_VIS
  5
247
 10
12.2879
 20
4.84552
 30
0.000000
  70
    32
  0
VERTEX
  8
AM_VIS
  5
248
 10
12.2877
 20
4.84446
 30
0.000000
  70
    32
  0
VERTEX
  8
AM_VIS
  5
249
 10
12.2874
 20
4.84340
 30
0.000000
  70
    32
  0
VERTEX
  8
AM_VIS
  5
24A
 10
12.2871
 20
4.84234
 30
0.000000
  70
    32
  0
VERTEX
  8
AM_VIS
  5
24B
 10
12.2869
 20
4.84129
 30
0.000000
  70
    32
  0
VERTEX
  8
AM_VIS
  5
24C
 10
12.2866
 20
4.84024
 30
0.000000
  70
    32
  0
VERTEX
  8
AM_VIS
  5
24D
 10
12.2863
 20
4.83919
 30
0.000000
  70
    32
  0
VERTEX
  8
AM_VIS
  5
24E
 10
12.2861
 20
4.83814
 30
0.000000
  70
    32
  0
VERTEX
  8
AM_VIS
  5
24F
 10
12.2858
 20
4.83710
 30
0.000000
  70
    32
  0
VERTEX
  8
AM_VIS
  5
250
 10
12.2855
 20
4.83605
 30
0.000000
  70
    32
  0
VERTEX
  8
AM_VIS
  5
251
 10
12.2853
 20
4.83501
 30
0.000000
  70
    32
  0
VERTEX
  8
AM_VIS
  5
252
 10
12.2850
 20
4.83397
 30
0.000000
  70
    32
  0
VERTEX
  8
AM_VIS
  5
253
 10
12.2848
 20
4.83293
 30
0.000000
  70
    32
  0
VERTEX
  8
AM_VIS
  5
254
 10
12.2845
 20
4.83190
 30
0.000000
  70
    32
  0
VERTEX
  8
AM_VIS
  5
255
 10
12.2843
 20
4.83086
 30
0.000000
  70
    32
  0
VERTEX
  8
AM_VIS
  5
256
 10
12.2841
 20
4.82983
 30
0.000000
  70
    32
  0
VERTEX
  8
AM_VIS
  5
257
 10
12.2838
 20
4.82880
 30
0.000000
  70
    32
  0
VERTEX
  8
AM_VIS
  5
258
 10
12.2836
 20
4.82777
 30
0.000000
  70
    32
  0
VERTEX
  8
AM_VIS
  5
259
 10
12.2833
 20
4.82675
 30
0.000000
  70
    32
  0
VERTEX
  8
AM_VIS
  5
25A
 10
12.2831
 20
4.82572
 30
0.000000
  70
    32
  0
VERTEX
  8
AM_VIS
  5
25B
 10
12.2829
 20
4.82470
 30
0.000000
  70
    32
  0
VERTEX
  8
AM_VIS
  5
25C
 10
12.2827
 20
4.82368
 30
0.000000
  70
    32
  0
VERTEX
  8
AM_VIS
  5
25D
 10
12.2824
 20
4.82266
 30
0.000000
  70
    32
  0
VERTEX
  8
AM_VIS
  5
25E
 10
12.2822
 20
4.82164
 30
0.000000
  70
    32
  0
VERTEX
  8
AM_VIS
  5
25F
 10
12.2820
 20
4.82063
 30
0.000000
  70
    32
  0
VERTEX
  8
AM_VIS
  5
260
 10
12.2818
 20
4.81962
 30
0.000000
  70
    32
  0
VERTEX
  8
AM_VIS
  5
261
 10
12.2816
 20
4.81861
 30
0.000000
  70
    32
  0
VERTEX
  8
AM_VIS
  5
262
 10
12.2814
 20
4.81760
 30
0.000000
  70
    32
  0
VERTEX
  8
AM_VIS
  5
263
 10
12.2812
 20
4.81659
 30
0.000000
  70
    32
  0
VERTEX
  8
AM_VIS
  5
264
 10
12.2810
 20
4.81558
 30
0.000000
  70
    32
  0
VERTEX
  8
AM_VIS
  5
265
 10
12.2808
 20
4.81458
 30
0.000000
  70
    32
  0
VERTEX
  8
AM_VIS
  5
266
 10
12.2806
 20
4.81358
 30
0.000000
  70
    32
  0
VERTEX
  8
AM_VIS
  5
267
 10
12.2804
 20
4.81258
 30
0.000000
  70
    32
  0
VERTEX
  8
AM_VIS
  5
268
 10
12.2802
 20
4.81158
 30
0.000000
  70
    32
  0
VERTEX
  8
AM_VIS
  5
269
 10
12.2800
 20
4.81058
 30
0.000000
  70
    32
  0
VERTEX
  8
AM_VIS
  5
26A
 10
12.2798
 20
4.80959
 30
0.000000
  70
    32
  0
VERTEX
  8
AM_VIS
  5
26B
 10
12.2796
 20
4.80859
 30
0.000000
  70
    32
  0
VERTEX
  8
AM_VIS
  5
26C
 10
12.2794
 20
4.80760
 30
0.000000
  70
    32
  0
VERTEX
  8
AM_VIS
  5
26D
 10
12.2793
 20
4.80661
 30
0.000000
  70
    32
  0
VERTEX
  8
AM_VIS
  5
26E
 10
12.2791
 20
4.80562
 30
0.000000
  70
    32
  0
VERTEX
  8
AM_VIS
  5
26F
 10
12.2789
 20
4.80464
 30
0.000000
  70
    32
  0
VERTEX
  8
AM_VIS
  5
270
 10
12.2788
 20
4.80365
 30
0.000000
  70
    32
  0
VERTEX
  8
AM_VIS
  5
271
 10
12.2786
 20
4.80267
 30
0.000000
  70
    32
  0
VERTEX
  8
AM_VIS
  5
272
 10
12.2784
 20
4.80169
 30
0.000000
  70
    32
  0
VERTEX
  8
AM_VIS
  5
273
 10
12.2783
 20
4.80071
 30
0.000000
  70
    32
  0
VERTEX
  8
AM_VIS
  5
274
 10
12.2781
 20
4.79974
 30
0.000000
  70
    32
  0
VERTEX
  8
AM_VIS
  5
275
 10
12.2780
 20
4.79876
 30
0.000000
  70
    32
  0
VERTEX
  8
AM_VIS
  5
276
 10
12.2778
 20
4.79779
 30
0.000000
  70
    32
  0
VERTEX
  8
AM_VIS
  5
277
 10
12.2777
 20
4.79681
 30
0.000000
  70
    32
  0
VERTEX
  8
AM_VIS
  5
278
 10
12.2776
 20
4.79584
 30
0.000000
  70
    32
  0
VERTEX
  8
AM_VIS
  5
279
 10
12.2774
 20
4.79487
 30
0.000000
  70
    32
  0
VERTEX
  8
AM_VIS
  5
27A
 10
12.2773
 20
4.79391
 30
0.000000
  70
    32
  0
VERTEX
  8
AM_VIS
  5
27B
 10
12.2772
 20
4.79294
 30
0.000000
  70
    32
  0
VERTEX
  8
AM_VIS
  5
27C
 10
12.2770
 20
4.79198
 30
0.000000
  70
    32
  0
VERTEX
  8
AM_VIS
  5
27D
 10
12.2769
 20
4.79101
 30
0.000000
  70
    32
  0
VERTEX
  8
AM_VIS
  5
27E
 10
12.2768
 20
4.79005
 30
0.000000
  70
    32
  0
VERTEX
  8
AM_VIS
  5
27F
 10
12.2767
 20
4.78910
 30
0.000000
  70
    32
  0
VERTEX
  8
AM_VIS
  5
280
 10
12.2766
 20
4.78814
 30
0.000000
  70
    32
  0
VERTEX
  8
AM_VIS
  5
281
 10
12.2765
 20
4.78718
 30
0.000000
  70
    32
  0
VERTEX
  8
AM_VIS
  5
282
 10
12.2764
 20
4.78623
 30
0.000000
  70
    32
  0
VERTEX
  8
AM_VIS
  5
283
 10
12.2763
 20
4.78528
 30
0.000000
  70
    32
  0
VERTEX
  8
AM_VIS
  5
284
 10
12.2762
 20
4.78432
 30
0.000000
  70
    32
  0
VERTEX
  8
AM_VIS
  5
285
 10
12.2761
 20
4.78338
 30
0.000000
  70
    32
  0
VERTEX
  8
AM_VIS
  5
286
 10
12.2760
 20
4.78243
 30
0.000000
  70
    32
  0
VERTEX
  8
AM_VIS
  5
287
 10
12.2759
 20
4.78148
 30
0.000000
  70
    32
  0
VERTEX
  8
AM_VIS
  5
288
 10
12.2758
 20
4.78054
 30
0.000000
  70
    32
  0
VERTEX
  8
AM_VIS
  5
289
 10
12.2757
 20
4.77959
 30
0.000000
  70
    32
  0
VERTEX
  8
AM_VIS
  5
28A
 10
12.2757
 20
4.77865
 30
0.000000
  70
    32
  0
VERTEX
  8
AM_VIS
  5
28B
 10
12.2756
 20
4.77771
 30
0.000000
  70
    32
  0
VERTEX
  8
AM_VIS
  5
28C
 10
12.2755
 20
4.77677
 30
0.000000
  70
    32
  0
VERTEX
  8
AM_VIS
  5
28D
 10
12.2755
 20
4.77584
 30
0.000000
  70
    32
  0
VERTEX
  8
AM_VIS
  5
28E
 10
12.2754
 20
4.77490
 30
0.000000
  70
    32
  0
VERTEX
  8
AM_VIS
  5
28F
 10
12.2754
 20
4.77397
 30
0.000000
  70
    32
  0
VERTEX
  8
AM_VIS
  5
290
 10
12.2753
 20
4.77304
 30
0.000000
  70
    32
  0
VERTEX
  8
AM_VIS
  5
291
 10
12.2753
 20
4.77211
 30
0.000000
  70
    32
  0
VERTEX
  8
AM_VIS
  5
292
 10
12.2752
 20
4.77118
 30
0.000000
  70
    32
  0
VERTEX
  8
AM_VIS
  5
293
 10
12.2752
 20
4.77025
 30
0.000000
  70
    32
  0
VERTEX
  8
AM_VIS
  5
294
 10
12.2752
 20
4.76932
 30
0.000000
  70
    32
  0
VERTEX
  8
AM_VIS
  5
295
 10
12.2751
 20
4.76840
 30
0.000000
  70
    32
  0
VERTEX
  8
AM_VIS
  5
296
 10
12.2751
 20
4.76747
 30
0.000000
  70
    32
  0
VERTEX
  8
AM_VIS
  5
297
 10
12.2751
 20
4.76655
 30
0.000000
  70
    32
  0
VERTEX
  8
AM_VIS
  5
298
 10
12.2751
 20
4.76563
 30
0.000000
  70
    32
  0
VERTEX
  8
AM_VIS
  5
299
 10
12.2751
 20
4.76471
 30
0.000000
  70
    32
  0
VERTEX
  8
AM_VIS
  5
29A
 10
12.2751
 20
4.76379
 30
0.000000
  70
    32
  0
VERTEX
  8
AM_VIS
  5
29B
 10
12.2751
 20
4.76287
 30
0.000000
  70
    32
  0
VERTEX
  8
AM_VIS
  5
29C
 10
12.2751
 20
4.76194
 30
0.000000
  70
    32
  0
VERTEX
  8
AM_VIS
  5
29D
 10
12.2751
 20
4.76102
 30
0.000000
  70
    32
  0
VERTEX
  8
AM_VIS
  5
29E
 10
12.2751
 20
4.76010
 30
0.000000
  70
    32
  0
VERTEX
  8
AM_VIS
  5
29F
 10
12.2751
 20
4.75918
 30
0.000000
  70
    32
  0
VERTEX
  8
AM_VIS
  5
2A0
 10
12.2751
 20
4.75826
 30
0.000000
  70
    32
  0
VERTEX
  8
AM_VIS
  5
2A1
 10
12.2752
 20
4.75734
 30
0.000000
  70
    32
  0
VERTEX
  8
AM_VIS
  5
2A2
 10
12.2752
 20
4.75642
 30
0.000000
  70
    32
  0
VERTEX
  8
AM_VIS
  5
2A3
 10
12.2752
 20
4.75550
 30
0.000000
  70
    32
  0
VERTEX
  8
AM_VIS
  5
2A4
 10
12.2753
 20
4.75459
 30
0.000000
  70
    32
  0
VERTEX
  8
AM_VIS
  5
2A5
 10
12.2753
 20
4.75367
 30
0.000000
  70
    32
  0
VERTEX
  8
AM_VIS
  5
2A6
 10
12.2754
 20
4.75275
 30
0.000000
  70
    32
  0
VERTEX
  8
AM_VIS
  5
2A7
 10
12.2754
 20
4.75183
 30
0.000000
  70
    32
  0
VERTEX
  8
AM_VIS
  5
2A8
 10
12.2755
 20
4.75092
 30
0.000000
  70
    32
  0
VERTEX
  8
AM_VIS
  5
2A9
 10
12.2756
 20
4.75000
 30
0.000000
  70
    32
  0
VERTEX
  8
AM_VIS
  5
2AA
 10
12.2756
 20
4.74908
 30
0.000000
  70
    32
  0
VERTEX
  8
AM_VIS
  5
2AB
 10
12.2757
 20
4.74817
 30
0.000000
  70
    32
  0
VERTEX
  8
AM_VIS
  5
2AC
 10
12.2758
 20
4.74725
 30
0.000000
  70
    32
  0
VERTEX
  8
AM_VIS
  5
2AD
 10
12.2759
 20
4.74634
 30
0.000000
  70
    32
  0
VERTEX
  8
AM_VIS
  5
2AE
 10
12.2760
 20
4.74543
 30
0.000000
  70
    32
  0
VERTEX
  8
AM_VIS
  5
2AF
 10
12.2761
 20
4.74451
 30
0.000000
  70
    32
  0
VERTEX
  8
AM_VIS
  5
2B0
 10
12.2762
 20
4.74360
 30
0.000000
  70
    32
  0
VERTEX
  8
AM_VIS
  5
2B1
 10
12.2763
 20
4.74269
 30
0.000000
  70
    32
  0
VERTEX
  8
AM_VIS
  5
2B2
 10
12.2764
 20
4.74178
 30
0.000000
  70
    32
  0
VERTEX
  8
AM_VIS
  5
2B3
 10
12.2765
 20
4.74087
 30
0.000000
  70
    32
  0
VERTEX
  8
AM_VIS
  5
2B4
 10
12.2766
 20
4.73996
 30
0.000000
  70
    32
  0
VERTEX
  8
AM_VIS
  5
2B5
 10
12.2768
 20
4.73905
 30
0.000000
  70
    32
  0
VERTEX
  8
AM_VIS
  5
2B6
 10
12.2769
 20
4.73815
 30
0.000000
  70
    32
  0
VERTEX
  8
AM_VIS
  5
2B7
 10
12.2770
 20
4.73724
 30
0.000000
  70
    32
  0
VERTEX
  8
AM_VIS
  5
2B8
 10
12.2772
 20
4.73633
 30
0.000000
  70
    32
  0
VERTEX
  8
AM_VIS
  5
2B9
 10
12.2773
 20
4.73543
 30
0.000000
  70
    32
  0
VERTEX
  8
AM_VIS
  5
2BA
 10
12.2775
 20
4.73453
 30
0.000000
  70
    32
  0
VERTEX
  8
AM_VIS
  5
2BB
 10
12.2777
 20
4.73362
 30
0.000000
  70
    32
  0
VERTEX
  8
AM_VIS
  5
2BC
 10
12.2778
 20
4.73272
 30
0.000000
  70
    32
  0
VERTEX
  8
AM_VIS
  5
2BD
 10
12.2780
 20
4.73182
 30
0.000000
  70
    32
  0
VERTEX
  8
AM_VIS
  5
2BE
 10
12.2782
 20
4.73092
 30
0.000000
  70
    32
  0
VERTEX
  8
AM_VIS
  5
2BF
 10
12.2784
 20
4.73002
 30
0.000000
  70
    32
  0
VERTEX
  8
AM_VIS
  5
2C0
 10
12.2786
 20
4.72912
 30
0.000000
  70
    32
  0
VERTEX
  8
AM_VIS
  5
2C1
 10
12.2788
 20
4.72823
 30
0.000000
  70
    32
  0
VERTEX
  8
AM_VIS
  5
2C2
 10
12.2790
 20
4.72733
 30
0.000000
  70
    32
  0
VERTEX
  8
AM_VIS
  5
2C3
 10
12.2792
 20
4.72643
 30
0.000000
  70
    32
  0
VERTEX
  8
AM_VIS
  5
2C4
 10
12.2794
 20
4.72554
 30
0.000000
  70
    32
  0
VERTEX
  8
AM_VIS
  5
2C5
 10
12.2797
 20
4.72465
 30
0.000000
  70
    32
  0
VERTEX
  8
AM_VIS
  5
2C6
 10
12.2799
 20
4.72376
 30
0.000000
  70
    32
  0
VERTEX
  8
AM_VIS
  5
2C7
 10
12.2801
 20
4.72287
 30
0.000000
  70
    32
  0
VERTEX
  8
AM_VIS
  5
2C8
 10
12.2804
 20
4.72198
 30
0.000000
  70
    32
  0
VERTEX
  8
AM_VIS
  5
2C9
 10
12.2806
 20
4.72109
 30
0.000000
  70
    32
  0
VERTEX
  8
AM_VIS
  5
2CA
 10
12.2809
 20
4.72020
 30
0.000000
  70
    32
  0
VERTEX
  8
AM_VIS
  5
2CB
 10
12.2812
 20
4.71932
 30
0.000000
  70
    32
  0
VERTEX
  8
AM_VIS
  5
2CC
 10
12.2814
 20
4.71843
 30
0.000000
  70
    32
  0
VERTEX
  8
AM_VIS
  5
2CD
 10
12.2817
 20
4.71755
 30
0.000000
  70
    32
  0
VERTEX
  8
AM_VIS
  5
2CE
 10
12.2820
 20
4.71667
 30
0.000000
  70
    32
  0
VERTEX
  8
AM_VIS
  5
2CF
 10
12.2823
 20
4.71580
 30
0.000000
  70
    32
  0
VERTEX
  8
AM_VIS
  5
2D0
 10
12.2826
 20
4.71492
 30
0.000000
  70
    32
  0
VERTEX
  8
AM_VIS
  5
2D1
 10
12.2829
 20
4.71405
 30
0.000000
  70
    32
  0
VERTEX
  8
AM_VIS
  5
2D2
 10
12.2832
 20
4.71319
 30
0.000000
  70
    32
  0
VERTEX
  8
AM_VIS
  5
2D3
 10
12.2836
 20
4.71232
 30
0.000000
  70
    32
  0
VERTEX
  8
AM_VIS
  5
2D4
 10
12.2839
 20
4.71146
 30
0.000000
  70
    32
  0
VERTEX
  8
AM_VIS
  5
2D5
 10
12.2842
 20
4.71061
 30
0.000000
  70
    32
  0
VERTEX
  8
AM_VIS
  5
2D6
 10
12.2845
 20
4.70975
 30
0.000000
  70
    32
  0
VERTEX
  8
AM_VIS
  5
2D7
 10
12.2849
 20
4.70890
 30
0.000000
  70
    32
  0
VERTEX
  8
AM_VIS
  5
2D8
 10
12.2852
 20
4.70805
 30
0.000000
  70
    32
  0
VERTEX
  8
AM_VIS
  5
2D9
 10
12.2856
 20
4.70721
 30
0.000000
  70
    32
  0
VERTEX
  8
AM_VIS
  5
2DA
 10
12.2860
 20
4.70637
 30
0.000000
  70
    32
  0
VERTEX
  8
AM_VIS
  5
2DB
 10
12.2863
 20
4.70553
 30
0.000000
  70
    32
  0
VERTEX
  8
AM_VIS
  5
2DC
 10
12.2867
 20
4.70469
 30
0.000000
  70
    32
  0
VERTEX
  8
AM_VIS
  5
2DD
 10
12.2871
 20
4.70386
 30
0.000000
  70
    32
  0
VERTEX
  8
AM_VIS
  5
2DE
 10
12.2875
 20
4.70303
 30
0.000000
  70
    32
  0
VERTEX
  8
AM_VIS
  5
2DF
 10
12.2879
 20
4.70221
 30
0.000000
  70
    32
  0
VERTEX
  8
AM_VIS
  5
2E0
 10
12.2883
 20
4.70138
 30
0.000000
  70
    32
  0
VERTEX
  8
AM_VIS
  5
2E1
 10
12.2887
 20
4.70057
 30
0.000000
  70
    32
  0
VERTEX
  8
AM_VIS
  5
2E2
 10
12.2891
 20
4.69975
 30
0.000000
  70
    32
  0
VERTEX
  8
AM_VIS
  5
2E3
 10
12.2895
 20
4.69894
 30
0.000000
  70
    32
  0
VERTEX
  8
AM_VIS
  5
2E4
 10
12.2900
 20
4.69813
 30
0.000000
  70
    32
  0
VERTEX
  8
AM_VIS
  5
2E5
 10
12.2904
 20
4.69732
 30
0.000000
  70
    32
  0
VERTEX
  8
AM_VIS
  5
2E6
 10
12.2908
 20
4.69652
 30
0.000000
  70
    32
  0
VERTEX
  8
AM_VIS
  5
2E7
 10
12.2913
 20
4.69572
 30
0.000000
  70
    32
  0
VERTEX
  8
AM_VIS
  5
2E8
 10
12.2917
 20
4.69493
 30
0.000000
  70
    32
  0
SEQEND
  8
AM_VIS
  5
2E9
  0
ARC
  5
2C
  8
AM_HID
 10
28.379302434707849
 20
11.70970800694927
 30
0.0
 40
17.374926850140831
 50
206.5077833299552
 51
207.76117397063979
  0
POLYLINE
  8
AM_HID
  5
2EA
  66
     1
 10
0.000000
 20
0.000000
 30
0.000000
  70
     8
  0
VERTEX
  8
AM_HID
  5
2EB
 10
12.8309
 20
3.95494
 30
0.000000
  70
    32
  0
VERTEX
  8
AM_HID
  5
2EC
 10
12.8297
 20
3.95740
 30
0.000000
  70
    32
  0
VERTEX
  8
AM_HID
  5
2ED
 10
12.8285
 20
3.95987
 30
0.000000
  70
    32
  0
VERTEX
  8
AM_HID
  5
2EE
 10
12.8273
 20
3.96233
 30
0.000000
  70
    32
  0
VERTEX
  8
AM_HID
  5
2EF
 10
12.8261
 20
3.96479
 30
0.000000
  70
    32
  0
VERTEX
  8
AM_HID
  5
2F0
 10
12.8248
 20
3.96726
 30
0.000000
  70
    32
  0
VERTEX
  8
AM_HID
  5
2F1
 10
12.8236
 20
3.96973
 30
0.000000
  70
    32
  0
VERTEX
  8
AM_HID
  5
2F2
 10
12.8224
 20
3.97219
 30
0.000000
  70
    32
  0
VERTEX
  8
AM_HID
  5
2F3
 10
12.8212
 20
3.97466
 30
0.000000
  70
    32
  0
VERTEX
  8
AM_HID
  5
2F4
 10
12.8199
 20
3.97713
 30
0.000000
  70
    32
  0
VERTEX
  8
AM_HID
  5
2F5
 10
12.8187
 20
3.97960
 30
0.000000
  70
    32
  0
VERTEX
  8
AM_HID
  5
2F6
 10
12.8175
 20
3.98207
 30
0.000000
  70
    32
  0
VERTEX
  8
AM_HID
  5
2F7
 10
12.8163
 20
3.98453
 30
0.000000
  70
    32
  0
VERTEX
  8
AM_HID
  5
2F8
 10
12.8151
 20
3.98700
 30
0.000000
  70
    32
  0
VERTEX
  8
AM_HID
  5
2F9
 10
12.8138
 20
3.98947
 30
0.000000
  70
    32
  0
VERTEX
  8
AM_HID
  5
2FA
 10
12.8126
 20
3.99194
 30
0.000000
  70
    32
  0
VERTEX
  8
AM_HID
  5
2FB
 10
12.8114
 20
3.99441
 30
0.000000
  70
    32
  0
VERTEX
  8
AM_HID
  5
2FC
 10
12.8102
 20
3.99688
 30
0.000000
  70
    32
  0
VERTEX
  8
AM_HID
  5
2FD
 10
12.8090
 20
3.99935
 30
0.000000
  70
    32
  0
VERTEX
  8
AM_HID
  5
2FE
 10
12.8078
 20
4.00181
 30
0.000000
  70
    32
  0
VERTEX
  8
AM_HID
  5
2FF
 10
12.8066
 20
4.00428
 30
0.000000
  70
    32
  0
VERTEX
  8
AM_HID
  5
300
 10
12.8053
 20
4.00674
 30
0.000000
  70
    32
  0
VERTEX
  8
AM_HID
  5
301
 10
12.8041
 20
4.00921
 30
0.000000
  70
    32
  0
VERTEX
  8
AM_HID
  5
302
 10
12.8029
 20
4.01167
 30
0.000000
  70
    32
  0
VERTEX
  8
AM_HID
  5
303
 10
12.8017
 20
4.01413
 30
0.000000
  70
    32
  0
VERTEX
  8
AM_HID
  5
304
 10
12.8005
 20
4.01659
 30
0.000000
  70
    32
  0
VERTEX
  8
AM_HID
  5
305
 10
12.7993
 20
4.01905
 30
0.000000
  70
    32
  0
VERTEX
  8
AM_HID
  5
306
 10
12.7981
 20
4.02151
 30
0.000000
  70
    32
  0
VERTEX
  8
AM_HID
  5
307
 10
12.7969
 20
4.02396
 30
0.000000
  70
    32
  0
VERTEX
  8
AM_HID
  5
308
 10
12.7957
 20
4.02642
 30
0.000000
  70
    32
  0
VERTEX
  8
AM_HID
  5
309
 10
12.7945
 20
4.02887
 30
0.000000
  70
    32
  0
VERTEX
  8
AM_HID
  5
30A
 10
12.7933
 20
4.03132
 30
0.000000
  70
    32
  0
VERTEX
  8
AM_HID
  5
30B
 10
12.7921
 20
4.03376
 30
0.000000
  70
    32
  0
VERTEX
  8
AM_HID
  5
30C
 10
12.7909
 20
4.03621
 30
0.000000
  70
    32
  0
VERTEX
  8
AM_HID
  5
30D
 10
12.7897
 20
4.03865
 30
0.000000
  70
    32
  0
VERTEX
  8
AM_HID
  5
30E
 10
12.7886
 20
4.04108
 30
0.000000
  70
    32
  0
VERTEX
  8
AM_HID
  5
30F
 10
12.7874
 20
4.04352
 30
0.000000
  70
    32
  0
VERTEX
  8
AM_HID
  5
310
 10
12.7862
 20
4.04595
 30
0.000000
  70
    32
  0
VERTEX
  8
AM_HID
  5
311
 10
12.7850
 20
4.04838
 30
0.000000
  70
    32
  0
VERTEX
  8
AM_HID
  5
312
 10
12.7838
 20
4.05082
 30
0.000000
  70
    32
  0
VERTEX
  8
AM_HID
  5
313
 10
12.7826
 20
4.05326
 30
0.000000
  70
    32
  0
VERTEX
  8
AM_HID
  5
314
 10
12.7815
 20
4.05572
 30
0.000000
  70
    32
  0
VERTEX
  8
AM_HID
  5
315
 10
12.7803
 20
4.05818
 30
0.000000
  70
    32
  0
VERTEX
  8
AM_HID
  5
316
 10
12.7791
 20
4.06065
 30
0.000000
  70
    32
  0
VERTEX
  8
AM_HID
  5
317
 10
12.7779
 20
4.06312
 30
0.000000
  70
    32
  0
VERTEX
  8
AM_HID
  5
318
 10
12.7767
 20
4.06561
 30
0.000000
  70
    32
  0
VERTEX
  8
AM_HID
  5
319
 10
12.7755
 20
4.06810
 30
0.000000
  70
    32
  0
VERTEX
  8
AM_HID
  5
31A
 10
12.7743
 20
4.07060
 30
0.000000
  70
    32
  0
VERTEX
  8
AM_HID
  5
31B
 10
12.7730
 20
4.07311
 30
0.000000
  70
    32
  0
VERTEX
  8
AM_HID
  5
31C
 10
12.7718
 20
4.07562
 30
0.000000
  70
    32
  0
VERTEX
  8
AM_HID
  5
31D
 10
12.7706
 20
4.07815
 30
0.000000
  70
    32
  0
VERTEX
  8
AM_HID
  5
31E
 10
12.7694
 20
4.08068
 30
0.000000
  70
    32
  0
VERTEX
  8
AM_HID
  5
31F
 10
12.7682
 20
4.08321
 30
0.000000
  70
    32
  0
VERTEX
  8
AM_HID
  5
320
 10
12.7670
 20
4.08576
 30
0.000000
  70
    32
  0
VERTEX
  8
AM_HID
  5
321
 10
12.7657
 20
4.08831
 30
0.000000
  70
    32
  0
VERTEX
  8
AM_HID
  5
322
 10
12.7645
 20
4.09087
 30
0.000000
  70
    32
  0
VERTEX
  8
AM_HID
  5
323
 10
12.7633
 20
4.09343
 30
0.000000
  70
    32
  0
VERTEX
  8
AM_HID
  5
324
 10
12.7620
 20
4.09601
 30
0.000000
  70
    32
  0
VERTEX
  8
AM_HID
  5
325
 10
12.7608
 20
4.09859
 30
0.000000
  70
    32
  0
VERTEX
  8
AM_HID
  5
326
 10
12.7596
 20
4.10117
 30
0.000000
  70
    32
  0
VERTEX
  8
AM_HID
  5
327
 10
12.7583
 20
4.10377
 30
0.000000
  70
    32
  0
VERTEX
  8
AM_HID
  5
328
 10
12.7571
 20
4.10637
 30
0.000000
  70
    32
  0
VERTEX
  8
AM_HID
  5
329
 10
12.7558
 20
4.10898
 30
0.000000
  70
    32
  0
VERTEX
  8
AM_HID
  5
32A
 10
12.7546
 20
4.11159
 30
0.000000
  70
    32
  0
VERTEX
  8
AM_HID
  5
32B
 10
12.7533
 20
4.11421
 30
0.000000
  70
    32
  0
VERTEX
  8
AM_HID
  5
32C
 10
12.7521
 20
4.11684
 30
0.000000
  70
    32
  0
VERTEX
  8
AM_HID
  5
32D
 10
12.7508
 20
4.11947
 30
0.000000
  70
    32
  0
VERTEX
  8
AM_HID
  5
32E
 10
12.7496
 20
4.12211
 30
0.000000
  70
    32
  0
VERTEX
  8
AM_HID
  5
32F
 10
12.7483
 20
4.12476
 30
0.000000
  70
    32
  0
VERTEX
  8
AM_HID
  5
330
 10
12.7471
 20
4.12741
 30
0.000000
  70
    32
  0
VERTEX
  8
AM_HID
  5
331
 10
12.7458
 20
4.13007
 30
0.000000
  70
    32
  0
VERTEX
  8
AM_HID
  5
332
 10
12.7445
 20
4.13273
 30
0.000000
  70
    32
  0
VERTEX
  8
AM_HID
  5
333
 10
12.7433
 20
4.13540
 30
0.000000
  70
    32
  0
VERTEX
  8
AM_HID
  5
334
 10
12.7420
 20
4.13808
 30
0.000000
  70
    32
  0
VERTEX
  8
AM_HID
  5
335
 10
12.7408
 20
4.14076
 30
0.000000
  70
    32
  0
VERTEX
  8
AM_HID
  5
336
 10
12.7395
 20
4.14345
 30
0.000000
  70
    32
  0
VERTEX
  8
AM_HID
  5
337
 10
12.7382
 20
4.14614
 30
0.000000
  70
    32
  0
VERTEX
  8
AM_HID
  5
338
 10
12.7369
 20
4.14884
 30
0.000000
  70
    32
  0
VERTEX
  8
AM_HID
  5
339
 10
12.7357
 20
4.15155
 30
0.000000
  70
    32
  0
VERTEX
  8
AM_HID
  5
33A
 10
12.7344
 20
4.15426
 30
0.000000
  70
    32
  0
VERTEX
  8
AM_HID
  5
33B
 10
12.7331
 20
4.15697
 30
0.000000
  70
    32
  0
VERTEX
  8
AM_HID
  5
33C
 10
12.7318
 20
4.15969
 30
0.000000
  70
    32
  0
VERTEX
  8
AM_HID
  5
33D
 10
12.7306
 20
4.16242
 30
0.000000
  70
    32
  0
VERTEX
  8
AM_HID
  5
33E
 10
12.7293
 20
4.16515
 30
0.000000
  70
    32
  0
VERTEX
  8
AM_HID
  5
33F
 10
12.7280
 20
4.16789
 30
0.000000
  70
    32
  0
VERTEX
  8
AM_HID
  5
340
 10
12.7267
 20
4.17063
 30
0.000000
  70
    32
  0
VERTEX
  8
AM_HID
  5
341
 10
12.7254
 20
4.17338
 30
0.000000
  70
    32
  0
VERTEX
  8
AM_HID
  5
342
 10
12.7242
 20
4.17613
 30
0.000000
  70
    32
  0
VERTEX
  8
AM_HID
  5
343
 10
12.7229
 20
4.17889
 30
0.000000
  70
    32
  0
VERTEX
  8
AM_HID
  5
344
 10
12.7216
 20
4.18165
 30
0.000000
  70
    32
  0
VERTEX
  8
AM_HID
  5
345
 10
12.7203
 20
4.18442
 30
0.000000
  70
    32
  0
VERTEX
  8
AM_HID
  5
346
 10
12.7190
 20
4.18719
 30
0.000000
  70
    32
  0
VERTEX
  8
AM_HID
  5
347
 10
12.7177
 20
4.18997
 30
0.000000
  70
    32
  0
VERTEX
  8
AM_HID
  5
348
 10
12.7164
 20
4.19275
 30
0.000000
  70
    32
  0
VERTEX
  8
AM_HID
  5
349
 10
12.7152
 20
4.19554
 30
0.000000
  70
    32
  0
VERTEX
  8
AM_HID
  5
34A
 10
12.7139
 20
4.19833
 30
0.000000
  70
    32
  0
VERTEX
  8
AM_HID
  5
34B
 10
12.7126
 20
4.20113
 30
0.000000
  70
    32
  0
VERTEX
  8
AM_HID
  5
34C
 10
12.7113
 20
4.20392
 30
0.000000
  70
    32
  0
VERTEX
  8
AM_HID
  5
34D
 10
12.7100
 20
4.20673
 30
0.000000
  70
    32
  0
VERTEX
  8
AM_HID
  5
34E
 10
12.7087
 20
4.20954
 30
0.000000
  70
    32
  0
VERTEX
  8
AM_HID
  5
34F
 10
12.7074
 20
4.21235
 30
0.000000
  70
    32
  0
VERTEX
  8
AM_HID
  5
350
 10
12.7061
 20
4.21517
 30
0.000000
  70
    32
  0
VERTEX
  8
AM_HID
  5
351
 10
12.7048
 20
4.21799
 30
0.000000
  70
    32
  0
VERTEX
  8
AM_HID
  5
352
 10
12.7035
 20
4.22081
 30
0.000000
  70
    32
  0
VERTEX
  8
AM_HID
  5
353
 10
12.7022
 20
4.22364
 30
0.000000
  70
    32
  0
VERTEX
  8
AM_HID
  5
354
 10
12.7009
 20
4.22647
 30
0.000000
  70
    32
  0
VERTEX
  8
AM_HID
  5
355
 10
12.6997
 20
4.22931
 30
0.000000
  70
    32
  0
VERTEX
  8
AM_HID
  5
356
 10
12.6984
 20
4.23215
 30
0.000000
  70
    32
  0
VERTEX
  8
AM_HID
  5
357
 10
12.6971
 20
4.23499
 30
0.000000
  70
    32
  0
VERTEX
  8
AM_HID
  5
358
 10
12.6958
 20
4.23784
 30
0.000000
  70
    32
  0
VERTEX
  8
AM_HID
  5
359
 10
12.6945
 20
4.24069
 30
0.000000
  70
    32
  0
VERTEX
  8
AM_HID
  5
35A
 10
12.6932
 20
4.24354
 30
0.000000
  70
    32
  0
VERTEX
  8
AM_HID
  5
35B
 10
12.6919
 20
4.24640
 30
0.000000
  70
    32
  0
VERTEX
  8
AM_HID
  5
35C
 10
12.6906
 20
4.24926
 30
0.000000
  70
    32
  0
VERTEX
  8
AM_HID
  5
35D
 10
12.6893
 20
4.25212
 30
0.000000
  70
    32
  0
VERTEX
  8
AM_HID
  5
35E
 10
12.6880
 20
4.25499
 30
0.000000
  70
    32
  0
VERTEX
  8
AM_HID
  5
35F
 10
12.6867
 20
4.25786
 30
0.000000
  70
    32
  0
VERTEX
  8
AM_HID
  5
360
 10
12.6854
 20
4.26074
 30
0.000000
  70
    32
  0
VERTEX
  8
AM_HID
  5
361
 10
12.6841
 20
4.26361
 30
0.000000
  70
    32
  0
VERTEX
  8
AM_HID
  5
362
 10
12.6828
 20
4.26649
 30
0.000000
  70
    32
  0
VERTEX
  8
AM_HID
  5
363
 10
12.6816
 20
4.26937
 30
0.000000
  70
    32
  0
VERTEX
  8
AM_HID
  5
364
 10
12.6803
 20
4.27226
 30
0.000000
  70
    32
  0
VERTEX
  8
AM_HID
  5
365
 10
12.6790
 20
4.27515
 30
0.000000
  70
    32
  0
VERTEX
  8
AM_HID
  5
366
 10
12.6777
 20
4.27804
 30
0.000000
  70
    32
  0
VERTEX
  8
AM_HID
  5
367
 10
12.6764
 20
4.28093
 30
0.000000
  70
    32
  0
VERTEX
  8
AM_HID
  5
368
 10
12.6751
 20
4.28382
 30
0.000000
  70
    32
  0
VERTEX
  8
AM_HID
  5
369
 10
12.6738
 20
4.28672
 30
0.000000
  70
    32
  0
VERTEX
  8
AM_HID
  5
36A
 10
12.6725
 20
4.28962
 30
0.000000
  70
    32
  0
VERTEX
  8
AM_HID
  5
36B
 10
12.6713
 20
4.29253
 30
0.000000
  70
    32
  0
VERTEX
  8
AM_HID
  5
36C
 10
12.6700
 20
4.29543
 30
0.000000
  70
    32
  0
VERTEX
  8
AM_HID
  5
36D
 10
12.6687
 20
4.29834
 30
0.000000
  70
    32
  0
VERTEX
  8
AM_HID
  5
36E
 10
12.6674
 20
4.30125
 30
0.000000
  70
    32
  0
VERTEX
  8
AM_HID
  5
36F
 10
12.6661
 20
4.30416
 30
0.000000
  70
    32
  0
VERTEX
  8
AM_HID
  5
370
 10
12.6649
 20
4.30707
 30
0.000000
  70
    32
  0
VERTEX
  8
AM_HID
  5
371
 10
12.6636
 20
4.30999
 30
0.000000
  70
    32
  0
VERTEX
  8
AM_HID
  5
372
 10
12.6623
 20
4.31290
 30
0.000000
  70
    32
  0
VERTEX
  8
AM_HID
  5
373
 10
12.6610
 20
4.31582
 30
0.000000
  70
    32
  0
VERTEX
  8
AM_HID
  5
374
 10
12.6598
 20
4.31874
 30
0.000000
  70
    32
  0
VERTEX
  8
AM_HID
  5
375
 10
12.6585
 20
4.32166
 30
0.000000
  70
    32
  0
VERTEX
  8
AM_HID
  5
376
 10
12.6572
 20
4.32459
 30
0.000000
  70
    32
  0
VERTEX
  8
AM_HID
  5
377
 10
12.6559
 20
4.32751
 30
0.000000
  70
    32
  0
VERTEX
  8
AM_HID
  5
378
 10
12.6547
 20
4.33044
 30
0.000000
  70
    32
  0
VERTEX
  8
AM_HID
  5
379
 10
12.6534
 20
4.33336
 30
0.000000
  70
    32
  0
VERTEX
  8
AM_HID
  5
37A
 10
12.6522
 20
4.33629
 30
0.000000
  70
    32
  0
VERTEX
  8
AM_HID
  5
37B
 10
12.6509
 20
4.33922
 30
0.000000
  70
    32
  0
VERTEX
  8
AM_HID
  5
37C
 10
12.6496
 20
4.34215
 30
0.000000
  70
    32
  0
VERTEX
  8
AM_HID
  5
37D
 10
12.6484
 20
4.34508
 30
0.000000
  70
    32
  0
VERTEX
  8
AM_HID
  5
37E
 10
12.6471
 20
4.34801
 30
0.000000
  70
    32
  0
VERTEX
  8
AM_HID
  5
37F
 10
12.6459
 20
4.35095
 30
0.000000
  70
    32
  0
VERTEX
  8
AM_HID
  5
380
 10
12.6446
 20
4.35388
 30
0.000000
  70
    32
  0
VERTEX
  8
AM_HID
  5
381
 10
12.6434
 20
4.35681
 30
0.000000
  70
    32
  0
VERTEX
  8
AM_HID
  5
382
 10
12.6421
 20
4.35975
 30
0.000000
  70
    32
  0
VERTEX
  8
AM_HID
  5
383
 10
12.6409
 20
4.36268
 30
0.000000
  70
    32
  0
VERTEX
  8
AM_HID
  5
384
 10
12.6396
 20
4.36562
 30
0.000000
  70
    32
  0
VERTEX
  8
AM_HID
  5
385
 10
12.6384
 20
4.36856
 30
0.000000
  70
    32
  0
VERTEX
  8
AM_HID
  5
386
 10
12.6371
 20
4.37149
 30
0.000000
  70
    32
  0
VERTEX
  8
AM_HID
  5
387
 10
12.6359
 20
4.37443
 30
0.000000
  70
    32
  0
VERTEX
  8
AM_HID
  5
388
 10
12.6347
 20
4.37736
 30
0.000000
  70
    32
  0
VERTEX
  8
AM_HID
  5
389
 10
12.6334
 20
4.38030
 30
0.000000
  70
    32
  0
VERTEX
  8
AM_HID
  5
38A
 10
12.6322
 20
4.38324
 30
0.000000
  70
    32
  0
VERTEX
  8
AM_HID
  5
38B
 10
12.6310
 20
4.38617
 30
0.000000
  70
    32
  0
VERTEX
  8
AM_HID
  5
38C
 10
12.6298
 20
4.38911
 30
0.000000
  70
    32
  0
VERTEX
  8
AM_HID
  5
38D
 10
12.6285
 20
4.39205
 30
0.000000
  70
    32
  0
VERTEX
  8
AM_HID
  5
38E
 10
12.6273
 20
4.39498
 30
0.000000
  70
    32
  0
VERTEX
  8
AM_HID
  5
38F
 10
12.6261
 20
4.39792
 30
0.000000
  70
    32
  0
VERTEX
  8
AM_HID
  5
390
 10
12.6249
 20
4.40085
 30
0.000000
  70
    32
  0
VERTEX
  8
AM_HID
  5
391
 10
12.6237
 20
4.40378
 30
0.000000
  70
    32
  0
VERTEX
  8
AM_HID
  5
392
 10
12.6225
 20
4.40672
 30
0.000000
  70
    32
  0
VERTEX
  8
AM_HID
  5
393
 10
12.6213
 20
4.40965
 30
0.000000
  70
    32
  0
VERTEX
  8
AM_HID
  5
394
 10
12.6201
 20
4.41258
 30
0.000000
  70
    32
  0
VERTEX
  8
AM_HID
  5
395
 10
12.6189
 20
4.41551
 30
0.000000
  70
    32
  0
VERTEX
  8
AM_HID
  5
396
 10
12.6177
 20
4.41844
 30
0.000000
  70
    32
  0
VERTEX
  8
AM_HID
  5
397
 10
12.6165
 20
4.42137
 30
0.000000
  70
    32
  0
VERTEX
  8
AM_HID
  5
398
 10
12.6153
 20
4.42430
 30
0.000000
  70
    32
  0
VERTEX
  8
AM_HID
  5
399
 10
12.6141
 20
4.42722
 30
0.000000
  70
    32
  0
VERTEX
  8
AM_HID
  5
39A
 10
12.6129
 20
4.43015
 30
0.000000
  70
    32
  0
VERTEX
  8
AM_HID
  5
39B
 10
12.6117
 20
4.43307
 30
0.000000
  70
    32
  0
VERTEX
  8
AM_HID
  5
39C
 10
12.6106
 20
4.43599
 30
0.000000
  70
    32
  0
VERTEX
  8
AM_HID
  5
39D
 10
12.6094
 20
4.43892
 30
0.000000
  70
    32
  0
VERTEX
  8
AM_HID
  5
39E
 10
12.6082
 20
4.44183
 30
0.000000
  70
    32
  0
VERTEX
  8
AM_HID
  5
39F
 10
12.6071
 20
4.44475
 30
0.000000
  70
    32
  0
VERTEX
  8
AM_HID
  5
3A0
 10
12.6059
 20
4.44767
 30
0.000000
  70
    32
  0
VERTEX
  8
AM_HID
  5
3A1
 10
12.6047
 20
4.45058
 30
0.000000
  70
    32
  0
VERTEX
  8
AM_HID
  5
3A2
 10
12.6036
 20
4.45349
 30
0.000000
  70
    32
  0
VERTEX
  8
AM_HID
  5
3A3
 10
12.6024
 20
4.45640
 30
0.000000
  70
    32
  0
VERTEX
  8
AM_HID
  5
3A4
 10
12.6013
 20
4.45931
 30
0.000000
  70
    32
  0
VERTEX
  8
AM_HID
  5
3A5
 10
12.6002
 20
4.46222
 30
0.000000
  70
    32
  0
VERTEX
  8
AM_HID
  5
3A6
 10
12.5990
 20
4.46512
 30
0.000000
  70
    32
  0
VERTEX
  8
AM_HID
  5
3A7
 10
12.5979
 20
4.46802
 30
0.000000
  70
    32
  0
VERTEX
  8
AM_HID
  5
3A8
 10
12.5967
 20
4.47092
 30
0.000000
  70
    32
  0
VERTEX
  8
AM_HID
  5
3A9
 10
12.5956
 20
4.47382
 30
0.000000
  70
    32
  0
VERTEX
  8
AM_HID
  5
3AA
 10
12.5945
 20
4.47671
 30
0.000000
  70
    32
  0
VERTEX
  8
AM_HID
  5
3AB
 10
12.5934
 20
4.47960
 30
0.000000
  70
    32
  0
VERTEX
  8
AM_HID
  5
3AC
 10
12.5923
 20
4.48249
 30
0.000000
  70
    32
  0
VERTEX
  8
AM_HID
  5
3AD
 10
12.5912
 20
4.48538
 30
0.000000
  70
    32
  0
VERTEX
  8
AM_HID
  5
3AE
 10
12.5900
 20
4.48826
 30
0.000000
  70
    32
  0
VERTEX
  8
AM_HID
  5
3AF
 10
12.5889
 20
4.49114
 30
0.000000
  70
    32
  0
VERTEX
  8
AM_HID
  5
3B0
 10
12.5878
 20
4.49402
 30
0.000000
  70
    32
  0
VERTEX
  8
AM_HID
  5
3B1
 10
12.5868
 20
4.49689
 30
0.000000
  70
    32
  0
VERTEX
  8
AM_HID
  5
3B2
 10
12.5857
 20
4.49976
 30
0.000000
  70
    32
  0
VERTEX
  8
AM_HID
  5
3B3
 10
12.5846
 20
4.50263
 30
0.000000
  70
    32
  0
VERTEX
  8
AM_HID
  5
3B4
 10
12.5835
 20
4.50550
 30
0.000000
  70
    32
  0
VERTEX
  8
AM_HID
  5
3B5
 10
12.5824
 20
4.50836
 30
0.000000
  70
    32
  0
VERTEX
  8
AM_HID
  5
3B6
 10
12.5814
 20
4.51122
 30
0.000000
  70
    32
  0
VERTEX
  8
AM_HID
  5
3B7
 10
12.5803
 20
4.51407
 30
0.000000
  70
    32
  0
VERTEX
  8
AM_HID
  5
3B8
 10
12.5792
 20
4.51692
 30
0.000000
  70
    32
  0
VERTEX
  8
AM_HID
  5
3B9
 10
12.5782
 20
4.51977
 30
0.000000
  70
    32
  0
VERTEX
  8
AM_HID
  5
3BA
 10
12.5771
 20
4.52261
 30
0.000000
  70
    32
  0
VERTEX
  8
AM_HID
  5
3BB
 10
12.5761
 20
4.52545
 30
0.000000
  70
    32
  0
VERTEX
  8
AM_HID
  5
3BC
 10
12.5750
 20
4.52829
 30
0.000000
  70
    32
  0
VERTEX
  8
AM_HID
  5
3BD
 10
12.5740
 20
4.53112
 30
0.000000
  70
    32
  0
VERTEX
  8
AM_HID
  5
3BE
 10
12.5730
 20
4.53395
 30
0.000000
  70
    32
  0
VERTEX
  8
AM_HID
  5
3BF
 10
12.5719
 20
4.53678
 30
0.000000
  70
    32
  0
VERTEX
  8
AM_HID
  5
3C0
 10
12.5709
 20
4.53962
 30
0.000000
  70
    32
  0
VERTEX
  8
AM_HID
  5
3C1
 10
12.5699
 20
4.54247
 30
0.000000
  70
    32
  0
VERTEX
  8
AM_HID
  5
3C2
 10
12.5689
 20
4.54533
 30
0.000000
  70
    32
  0
VERTEX
  8
AM_HID
  5
3C3
 10
12.5678
 20
4.54820
 30
0.000000
  70
    32
  0
VERTEX
  8
AM_HID
  5
3C4
 10
12.5668
 20
4.55107
 30
0.000000
  70
    32
  0
VERTEX
  8
AM_HID
  5
3C5
 10
12.5658
 20
4.55396
 30
0.000000
  70
    32
  0
VERTEX
  8
AM_HID
  5
3C6
 10
12.5647
 20
4.55686
 30
0.000000
  70
    32
  0
VERTEX
  8
AM_HID
  5
3C7
 10
12.5637
 20
4.55977
 30
0.000000
  70
    32
  0
VERTEX
  8
AM_HID
  5
3C8
 10
12.5627
 20
4.56268
 30
0.000000
  70
    32
  0
VERTEX
  8
AM_HID
  5
3C9
 10
12.5617
 20
4.56561
 30
0.000000
  70
    32
  0
VERTEX
  8
AM_HID
  5
3CA
 10
12.5606
 20
4.56854
 30
0.000000
  70
    32
  0
VERTEX
  8
AM_HID
  5
3CB
 10
12.5596
 20
4.57149
 30
0.000000
  70
    32
  0
VERTEX
  8
AM_HID
  5
3CC
 10
12.5586
 20
4.57444
 30
0.000000
  70
    32
  0
VERTEX
  8
AM_HID
  5
3CD
 10
12.5576
 20
4.57740
 30
0.000000
  70
    32
  0
VERTEX
  8
AM_HID
  5
3CE
 10
12.5566
 20
4.58037
 30
0.000000
  70
    32
  0
VERTEX
  8
AM_HID
  5
3CF
 10
12.5555
 20
4.58334
 30
0.000000
  70
    32
  0
VERTEX
  8
AM_HID
  5
3D0
 10
12.5545
 20
4.58633
 30
0.000000
  70
    32
  0
VERTEX
  8
AM_HID
  5
3D1
 10
12.5535
 20
4.58932
 30
0.000000
  70
    32
  0
VERTEX
  8
AM_HID
  5
3D2
 10
12.5525
 20
4.59232
 30
0.000000
  70
    32
  0
VERTEX
  8
AM_HID
  5
3D3
 10
12.5515
 20
4.59533
 30
0.000000
  70
    32
  0
VERTEX
  8
AM_HID
  5
3D4
 10
12.5505
 20
4.59835
 30
0.000000
  70
    32
  0
VERTEX
  8
AM_HID
  5
3D5
 10
12.5495
 20
4.60137
 30
0.000000
  70
    32
  0
VERTEX
  8
AM_HID
  5
3D6
 10
12.5485
 20
4.60440
 30
0.000000
  70
    32
  0
VERTEX
  8
AM_HID
  5
3D7
 10
12.5475
 20
4.60744
 30
0.000000
  70
    32
  0
VERTEX
  8
AM_HID
  5
3D8
 10
12.5465
 20
4.61049
 30
0.000000
  70
    32
  0
VERTEX
  8
AM_HID
  5
3D9
 10
12.5455
 20
4.61354
 30
0.000000
  70
    32
  0
VERTEX
  8
AM_HID
  5
3DA
 10
12.5445
 20
4.61660
 30
0.000000
  70
    32
  0
VERTEX
  8
AM_HID
  5
3DB
 10
12.5435
 20
4.61967
 30
0.000000
  70
    32
  0
VERTEX
  8
AM_HID
  5
3DC
 10
12.5425
 20
4.62274
 30
0.000000
  70
    32
  0
VERTEX
  8
AM_HID
  5
3DD
 10
12.5415
 20
4.62582
 30
0.000000
  70
    32
  0
VERTEX
  8
AM_HID
  5
3DE
 10
12.5406
 20
4.62891
 30
0.000000
  70
    32
  0
VERTEX
  8
AM_HID
  5
3DF
 10
12.5396
 20
4.63200
 30
0.000000
  70
    32
  0
VERTEX
  8
AM_HID
  5
3E0
 10
12.5386
 20
4.63510
 30
0.000000
  70
    32
  0
VERTEX
  8
AM_HID
  5
3E1
 10
12.5376
 20
4.63820
 30
0.000000
  70
    32
  0
VERTEX
  8
AM_HID
  5
3E2
 10
12.5367
 20
4.64131
 30
0.000000
  70
    32
  0
VERTEX
  8
AM_HID
  5
3E3
 10
12.5357
 20
4.64443
 30
0.000000
  70
    32
  0
VERTEX
  8
AM_HID
  5
3E4
 10
12.5348
 20
4.64756
 30
0.000000
  70
    32
  0
VERTEX
  8
AM_HID
  5
3E5
 10
12.5338
 20
4.65068
 30
0.000000
  70
    32
  0
VERTEX
  8
AM_HID
  5
3E6
 10
12.5329
 20
4.65382
 30
0.000000
  70
    32
  0
VERTEX
  8
AM_HID
  5
3E7
 10
12.5319
 20
4.65696
 30
0.000000
  70
    32
  0
VERTEX
  8
AM_HID
  5
3E8
 10
12.5310
 20
4.66010
 30
0.000000
  70
    32
  0
VERTEX
  8
AM_HID
  5
3E9
 10
12.5300
 20
4.66325
 30
0.000000
  70
    32
  0
VERTEX
  8
AM_HID
  5
3EA
 10
12.5291
 20
4.66641
 30
0.000000
  70
    32
  0
VERTEX
  8
AM_HID
  5
3EB
 10
12.5282
 20
4.66957
 30
0.000000
  70
    32
  0
VERTEX
  8
AM_HID
  5
3EC
 10
12.5273
 20
4.67273
 30
0.000000
  70
    32
  0
VERTEX
  8
AM_HID
  5
3ED
 10
12.5264
 20
4.67590
 30
0.000000
  70
    32
  0
VERTEX
  8
AM_HID
  5
3EE
 10
12.5254
 20
4.67908
 30
0.000000
  70
    32
  0
VERTEX
  8
AM_HID
  5
3EF
 10
12.5245
 20
4.68226
 30
0.000000
  70
    32
  0
VERTEX
  8
AM_HID
  5
3F0
 10
12.5236
 20
4.68544
 30
0.000000
  70
    32
  0
VERTEX
  8
AM_HID
  5
3F1
 10
12.5228
 20
4.68863
 30
0.000000
  70
    32
  0
VERTEX
  8
AM_HID
  5
3F2
 10
12.5219
 20
4.69182
 30
0.000000
  70
    32
  0
VERTEX
  8
AM_HID
  5
3F3
 10
12.5210
 20
4.69501
 30
0.000000
  70
    32
  0
VERTEX
  8
AM_HID
  5
3F4
 10
12.5201
 20
4.69821
 30
0.000000
  70
    32
  0
VERTEX
  8
AM_HID
  5
3F5
 10
12.5192
 20
4.70141
 30
0.000000
  70
    32
  0
VERTEX
  8
AM_HID
  5
3F6
 10
12.5184
 20
4.70462
 30
0.000000
  70
    32
  0
VERTEX
  8
AM_HID
  5
3F7
 10
12.5175
 20
4.70783
 30
0.000000
  70
    32
  0
VERTEX
  8
AM_HID
  5
3F8
 10
12.5167
 20
4.71104
 30
0.000000
  70
    32
  0
VERTEX
  8
AM_HID
  5
3F9
 10
12.5158
 20
4.71426
 30
0.000000
  70
    32
  0
VERTEX
  8
AM_HID
  5
3FA
 10
12.5150
 20
4.71748
 30
0.000000
  70
    32
  0
VERTEX
  8
AM_HID
  5
3FB
 10
12.5142
 20
4.72070
 30
0.000000
  70
    32
  0
VERTEX
  8
AM_HID
  5
3FC
 10
12.5134
 20
4.72393
 30
0.000000
  70
    32
  0
VERTEX
  8
AM_HID
  5
3FD
 10
12.5125
 20
4.72716
 30
0.000000
  70
    32
  0
VERTEX
  8
AM_HID
  5
3FE
 10
12.5117
 20
4.73039
 30
0.000000
  70
    32
  0
VERTEX
  8
AM_HID
  5
3FF
 10
12.5109
 20
4.73362
 30
0.000000
  70
    32
  0
VERTEX
  8
AM_HID
  5
400
 10
12.5101
 20
4.73686
 30
0.000000
  70
    32
  0
VERTEX
  8
AM_HID
  5
401
 10
12.5094
 20
4.74009
 30
0.000000
  70
    32
  0
VERTEX
  8
AM_HID
  5
402
 10
12.5086
 20
4.74333
 30
0.000000
  70
    32
  0
VERTEX
  8
AM_HID
  5
403
 10
12.5078
 20
4.74658
 30
0.000000
  70
    32
  0
VERTEX
  8
AM_HID
  5
404
 10
12.5071
 20
4.74982
 30
0.000000
  70
    32
  0
VERTEX
  8
AM_HID
  5
405
 10
12.5063
 20
4.75307
 30
0.000000
  70
    32
  0
VERTEX
  8
AM_HID
  5
406
 10
12.5056
 20
4.75631
 30
0.000000
  70
    32
  0
VERTEX
  8
AM_HID
  5
407
 10
12.5048
 20
4.75956
 30
0.000000
  70
    32
  0
VERTEX
  8
AM_HID
  5
408
 10
12.5041
 20
4.76282
 30
0.000000
  70
    32
  0
VERTEX
  8
AM_HID
  5
409
 10
12.5034
 20
4.76607
 30
0.000000
  70
    32
  0
VERTEX
  8
AM_HID
  5
40A
 10
12.5027
 20
4.76932
 30
0.000000
  70
    32
  0
VERTEX
  8
AM_HID
  5
40B
 10
12.5020
 20
4.77258
 30
0.000000
  70
    32
  0
VERTEX
  8
AM_HID
  5
40C
 10
12.5013
 20
4.77583
 30
0.000000
  70
    32
  0
VERTEX
  8
AM_HID
  5
40D
 10
12.5006
 20
4.77909
 30
0.000000
  70
    32
  0
VERTEX
  8
AM_HID
  5
40E
 10
12.4999
 20
4.78235
 30
0.000000
  70
    32
  0
VERTEX
  8
AM_HID
  5
40F
 10
12.4993
 20
4.78561
 30
0.000000
  70
    32
  0
VERTEX
  8
AM_HID
  5
410
 10
12.4986
 20
4.78886
 30
0.000000
  70
    32
  0
VERTEX
  8
AM_HID
  5
411
 10
12.4980
 20
4.79212
 30
0.000000
  70
    32
  0
VERTEX
  8
AM_HID
  5
412
 10
12.4974
 20
4.79538
 30
0.000000
  70
    32
  0
VERTEX
  8
AM_HID
  5
413
 10
12.4967
 20
4.79864
 30
0.000000
  70
    32
  0
VERTEX
  8
AM_HID
  5
414
 10
12.4961
 20
4.80190
 30
0.000000
  70
    32
  0
VERTEX
  8
AM_HID
  5
415
 10
12.4955
 20
4.80516
 30
0.000000
  70
    32
  0
VERTEX
  8
AM_HID
  5
416
 10
12.4949
 20
4.80842
 30
0.000000
  70
    32
  0
VERTEX
  8
AM_HID
  5
417
 10
12.4944
 20
4.81168
 30
0.000000
  70
    32
  0
VERTEX
  8
AM_HID
  5
418
 10
12.4938
 20
4.81494
 30
0.000000
  70
    32
  0
VERTEX
  8
AM_HID
  5
419
 10
12.4932
 20
4.81819
 30
0.000000
  70
    32
  0
VERTEX
  8
AM_HID
  5
41A
 10
12.4927
 20
4.82145
 30
0.000000
  70
    32
  0
VERTEX
  8
AM_HID
  5
41B
 10
12.4921
 20
4.82470
 30
0.000000
  70
    32
  0
VERTEX
  8
AM_HID
  5
41C
 10
12.4916
 20
4.82796
 30
0.000000
  70
    32
  0
VERTEX
  8
AM_HID
  5
41D
 10
12.4911
 20
4.83121
 30
0.000000
  70
    32
  0
VERTEX
  8
AM_HID
  5
41E
 10
12.4906
 20
4.83446
 30
0.000000
  70
    32
  0
VERTEX
  8
AM_HID
  5
41F
 10
12.4901
 20
4.83771
 30
0.000000
  70
    32
  0
VERTEX
  8
AM_HID
  5
420
 10
12.4896
 20
4.84096
 30
0.000000
  70
    32
  0
VERTEX
  8
AM_HID
  5
421
 10
12.4891
 20
4.84421
 30
0.000000
  70
    32
  0
VERTEX
  8
AM_HID
  5
422
 10
12.4887
 20
4.84745
 30
0.000000
  70
    32
  0
VERTEX
  8
AM_HID
  5
423
 10
12.4882
 20
4.85070
 30
0.000000
  70
    32
  0
VERTEX
  8
AM_HID
  5
424
 10
12.4878
 20
4.85394
 30
0.000000
  70
    32
  0
VERTEX
  8
AM_HID
  5
425
 10
12.4873
 20
4.85718
 30
0.000000
  70
    32
  0
VERTEX
  8
AM_HID
  5
426
 10
12.4869
 20
4.86041
 30
0.000000
  70
    32
  0
VERTEX
  8
AM_HID
  5
427
 10
12.4865
 20
4.86365
 30
0.000000
  70
    32
  0
VERTEX
  8
AM_HID
  5
428
 10
12.4861
 20
4.86688
 30
0.000000
  70
    32
  0
VERTEX
  8
AM_HID
  5
429
 10
12.4858
 20
4.87011
 30
0.000000
  70
    32
  0
VERTEX
  8
AM_HID
  5
42A
 10
12.4854
 20
4.87333
 30
0.000000
  70
    32
  0
VERTEX
  8
AM_HID
  5
42B
 10
12.4850
 20
4.87655
 30
0.000000
  70
    32
  0
VERTEX
  8
AM_HID
  5
42C
 10
12.4847
 20
4.87977
 30
0.000000
  70
    32
  0
VERTEX
  8
AM_HID
  5
42D
 10
12.4844
 20
4.88299
 30
0.000000
  70
    32
  0
VERTEX
  8
AM_HID
  5
42E
 10
12.4840
 20
4.88620
 30
0.000000
  70
    32
  0
VERTEX
  8
AM_HID
  5
42F
 10
12.4837
 20
4.88941
 30
0.000000
  70
    32
  0
VERTEX
  8
AM_HID
  5
430
 10
12.4834
 20
4.89262
 30
0.000000
  70
    32
  0
VERTEX
  8
AM_HID
  5
431
 10
12.4832
 20
4.89582
 30
0.000000
  70
    32
  0
VERTEX
  8
AM_HID
  5
432
 10
12.4829
 20
4.89902
 30
0.000000
  70
    32
  0
VERTEX
  8
AM_HID
  5
433
 10
12.4826
 20
4.90221
 30
0.000000
  70
    32
  0
VERTEX
  8
AM_HID
  5
434
 10
12.4824
 20
4.90540
 30
0.000000
  70
    32
  0
VERTEX
  8
AM_HID
  5
435
 10
12.4822
 20
4.90858
 30
0.000000
  70
    32
  0
VERTEX
  8
AM_HID
  5
436
 10
12.4820
 20
4.91176
 30
0.000000
  70
    32
  0
VERTEX
  8
AM_HID
  5
437
 10
12.4817
 20
4.91494
 30
0.000000
  70
    32
  0
VERTEX
  8
AM_HID
  5
438
 10
12.4816
 20
4.91811
 30
0.000000
  70
    32
  0
VERTEX
  8
AM_HID
  5
439
 10
12.4814
 20
4.92128
 30
0.000000
  70
    32
  0
VERTEX
  8
AM_HID
  5
43A
 10
12.4812
 20
4.92444
 30
0.000000
  70
    32
  0
VERTEX
  8
AM_HID
  5
43B
 10
12.4811
 20
4.92760
 30
0.000000
  70
    32
  0
VERTEX
  8
AM_HID
  5
43C
 10
12.4809
 20
4.93075
 30
0.000000
  70
    32
  0
VERTEX
  8
AM_HID
  5
43D
 10
12.4808
 20
4.93389
 30
0.000000
  70
    32
  0
VERTEX
  8
AM_HID
  5
43E
 10
12.4807
 20
4.93703
 30
0.000000
  70
    32
  0
VERTEX
  8
AM_HID
  5
43F
 10
12.4806
 20
4.94017
 30
0.000000
  70
    32
  0
VERTEX
  8
AM_HID
  5
440
 10
12.4805
 20
4.94330
 30
0.000000
  70
    32
  0
VERTEX
  8
AM_HID
  5
441
 10
12.4805
 20
4.94642
 30
0.000000
  70
    32
  0
VERTEX
  8
AM_HID
  5
442
 10
12.4804
 20
4.94954
 30
0.000000
  70
    32
  0
VERTEX
  8
AM_HID
  5
443
 10
12.4804
 20
4.95265
 30
0.000000
  70
    32
  0
VERTEX
  8
AM_HID
  5
444
 10
12.4804
 20
4.95575
 30
0.000000
  70
    32
  0
VERTEX
  8
AM_HID
  5
445
 10
12.4804
 20
4.95885
 30
0.000000
  70
    32
  0
VERTEX
  8
AM_HID
  5
446
 10
12.4804
 20
4.96195
 30
0.000000
  70
    32
  0
VERTEX
  8
AM_HID
  5
447
 10
12.4804
 20
4.96504
 30
0.000000
  70
    32
  0
VERTEX
  8
AM_HID
  5
448
 10
12.4804
 20
4.96814
 30
0.000000
  70
    32
  0
VERTEX
  8
AM_HID
  5
449
 10
12.4805
 20
4.97124
 30
0.000000
  70
    32
  0
VERTEX
  8
AM_HID
  5
44A
 10
12.4806
 20
4.97433
 30
0.000000
  70
    32
  0
VERTEX
  8
AM_HID
  5
44B
 10
12.4807
 20
4.97743
 30
0.000000
  70
    32
  0
VERTEX
  8
AM_HID
  5
44C
 10
12.4808
 20
4.98052
 30
0.000000
  70
    32
  0
VERTEX
  8
AM_HID
  5
44D
 10
12.4809
 20
4.98361
 30
0.000000
  70
    32
  0
VERTEX
  8
AM_HID
  5
44E
 10
12.4810
 20
4.98671
 30
0.000000
  70
    32
  0
VERTEX
  8
AM_HID
  5
44F
 10
12.4811
 20
4.98980
 30
0.000000
  70
    32
  0
VERTEX
  8
AM_HID
  5
450
 10
12.4813
 20
4.99289
 30
0.000000
  70
    32
  0
VERTEX
  8
AM_HID
  5
451
 10
12.4815
 20
4.99598
 30
0.000000
  70
    32
  0
VERTEX
  8
AM_HID
  5
452
 10
12.4817
 20
4.99907
 30
0.000000
  70
    32
  0
VERTEX
  8
AM_HID
  5
453
 10
12.4819
 20
5.00216
 30
0.000000
  70
    32
  0
VERTEX
  8
AM_HID
  5
454
 10
12.4821
 20
5.00524
 30
0.000000
  70
    32
  0
VERTEX
  8
AM_HID
  5
455
 10
12.4823
 20
5.00833
 30
0.000000
  70
    32
  0
VERTEX
  8
AM_HID
  5
456
 10
12.4826
 20
5.01141
 30
0.000000
  70
    32
  0
VERTEX
  8
AM_HID
  5
457
 10
12.4829
 20
5.01449
 30
0.000000
  70
    32
  0
VERTEX
  8
AM_HID
  5
458
 10
12.4831
 20
5.01757
 30
0.000000
  70
    32
  0
VERTEX
  8
AM_HID
  5
459
 10
12.4834
 20
5.02065
 30
0.000000
  70
    32
  0
VERTEX
  8
AM_HID
  5
45A
 10
12.4838
 20
5.02372
 30
0.000000
  70
    32
  0
VERTEX
  8
AM_HID
  5
45B
 10
12.4841
 20
5.02679
 30
0.000000
  70
    32
  0
VERTEX
  8
AM_HID
  5
45C
 10
12.4844
 20
5.02986
 30
0.000000
  70
    32
  0
VERTEX
  8
AM_HID
  5
45D
 10
12.4848
 20
5.03293
 30
0.000000
  70
    32
  0
VERTEX
  8
AM_HID
  5
45E
 10
12.4852
 20
5.03599
 30
0.000000
  70
    32
  0
VERTEX
  8
AM_HID
  5
45F
 10
12.4856
 20
5.03906
 30
0.000000
  70
    32
  0
VERTEX
  8
AM_HID
  5
460
 10
12.4860
 20
5.04211
 30
0.000000
  70
    32
  0
VERTEX
  8
AM_HID
  5
461
 10
12.4864
 20
5.04517
 30
0.000000
  70
    32
  0
VERTEX
  8
AM_HID
  5
462
 10
12.4868
 20
5.04822
 30
0.000000
  70
    32
  0
VERTEX
  8
AM_HID
  5
463
 10
12.4873
 20
5.05127
 30
0.000000
  70
    32
  0
VERTEX
  8
AM_HID
  5
464
 10
12.4878
 20
5.05432
 30
0.000000
  70
    32
  0
VERTEX
  8
AM_HID
  5
465
 10
12.4883
 20
5.05736
 30
0.000000
  70
    32
  0
VERTEX
  8
AM_HID
  5
466
 10
12.4888
 20
5.06040
 30
0.000000
  70
    32
  0
VERTEX
  8
AM_HID
  5
467
 10
12.4893
 20
5.06344
 30
0.000000
  70
    32
  0
VERTEX
  8
AM_HID
  5
468
 10
12.4898
 20
5.06647
 30
0.000000
  70
    32
  0
VERTEX
  8
AM_HID
  5
469
 10
12.4904
 20
5.06950
 30
0.000000
  70
    32
  0
VERTEX
  8
AM_HID
  5
46A
 10
12.4909
 20
5.07252
 30
0.000000
  70
    32
  0
VERTEX
  8
AM_HID
  5
46B
 10
12.4915
 20
5.07554
 30
0.000000
  70
    32
  0
VERTEX
  8
AM_HID
  5
46C
 10
12.4921
 20
5.07855
 30
0.000000
  70
    32
  0
VERTEX
  8
AM_HID
  5
46D
 10
12.4927
 20
5.08156
 30
0.000000
  70
    32
  0
VERTEX
  8
AM_HID
  5
46E
 10
12.4934
 20
5.08457
 30
0.000000
  70
    32
  0
VERTEX
  8
AM_HID
  5
46F
 10
12.4940
 20
5.08757
 30
0.000000
  70
    32
  0
VERTEX
  8
AM_HID
  5
470
 10
12.4947
 20
5.09057
 30
0.000000
  70
    32
  0
VERTEX
  8
AM_HID
  5
471
 10
12.4954
 20
5.09356
 30
0.000000
  70
    32
  0
VERTEX
  8
AM_HID
  5
472
 10
12.4961
 20
5.09655
 30
0.000000
  70
    32
  0
VERTEX
  8
AM_HID
  5
473
 10
12.4968
 20
5.09953
 30
0.000000
  70
    32
  0
VERTEX
  8
AM_HID
  5
474
 10
12.4975
 20
5.10251
 30
0.000000
  70
    32
  0
VERTEX
  8
AM_HID
  5
475
 10
12.4983
 20
5.10548
 30
0.000000
  70
    32
  0
VERTEX
  8
AM_HID
  5
476
 10
12.4990
 20
5.10844
 30
0.000000
  70
    32
  0
VERTEX
  8
AM_HID
  5
477
 10
12.4998
 20
5.11140
 30
0.000000
  70
    32
  0
VERTEX
  8
AM_HID
  5
478
 10
12.5006
 20
5.11436
 30
0.000000
  70
    32
  0
VERTEX
  8
AM_HID
  5
479
 10
12.5014
 20
5.11731
 30
0.000000
  70
    32
  0
VERTEX
  8
AM_HID
  5
47A
 10
12.5022
 20
5.12025
 30
0.000000
  70
    32
  0
VERTEX
  8
AM_HID
  5
47B
 10
12.5031
 20
5.12319
 30
0.000000
  70
    32
  0
VERTEX
  8
AM_HID
  5
47C
 10
12.5040
 20
5.12612
 30
0.000000
  70
    32
  0
VERTEX
  8
AM_HID
  5
47D
 10
12.5048
 20
5.12904
 30
0.000000
  70
    32
  0
VERTEX
  8
AM_HID
  5
47E
 10
12.5057
 20
5.13196
 30
0.000000
  70
    32
  0
VERTEX
  8
AM_HID
  5
47F
 10
12.5067
 20
5.13487
 30
0.000000
  70
    32
  0
VERTEX
  8
AM_HID
  5
480
 10
12.5076
 20
5.13778
 30
0.000000
  70
    32
  0
VERTEX
  8
AM_HID
  5
481
 10
12.5085
 20
5.14067
 30
0.000000
  70
    32
  0
VERTEX
  8
AM_HID
  5
482
 10
12.5095
 20
5.14357
 30
0.000000
  70
    32
  0
VERTEX
  8
AM_HID
  5
483
 10
12.5105
 20
5.14645
 30
0.000000
  70
    32
  0
VERTEX
  8
AM_HID
  5
484
 10
12.5115
 20
5.14933
 30
0.000000
  70
    32
  0
VERTEX
  8
AM_HID
  5
485
 10
12.5125
 20
5.15220
 30
0.000000
  70
    32
  0
VERTEX
  8
AM_HID
  5
486
 10
12.5135
 20
5.15507
 30
0.000000
  70
    32
  0
VERTEX
  8
AM_HID
  5
487
 10
12.5145
 20
5.15793
 30
0.000000
  70
    32
  0
VERTEX
  8
AM_HID
  5
488
 10
12.5156
 20
5.16078
 30
0.000000
  70
    32
  0
VERTEX
  8
AM_HID
  5
489
 10
12.5167
 20
5.16362
 30
0.000000
  70
    32
  0
VERTEX
  8
AM_HID
  5
48A
 10
12.5177
 20
5.16646
 30
0.000000
  70
    32
  0
VERTEX
  8
AM_HID
  5
48B
 10
12.5188
 20
5.16929
 30
0.000000
  70
    32
  0
VERTEX
  8
AM_HID
  5
48C
 10
12.5199
 20
5.17212
 30
0.000000
  70
    32
  0
VERTEX
  8
AM_HID
  5
48D
 10
12.5211
 20
5.17494
 30
0.000000
  70
    32
  0
VERTEX
  8
AM_HID
  5
48E
 10
12.5222
 20
5.17774
 30
0.000000
  70
    32
  0
VERTEX
  8
AM_HID
  5
48F
 10
12.5234
 20
5.18055
 30
0.000000
  70
    32
  0
VERTEX
  8
AM_HID
  5
490
 10
12.5245
 20
5.18334
 30
0.000000
  70
    32
  0
VERTEX
  8
AM_HID
  5
491
 10
12.5257
 20
5.18613
 30
0.000000
  70
    32
  0
VERTEX
  8
AM_HID
  5
492
 10
12.5269
 20
5.18891
 30
0.000000
  70
    32
  0
VERTEX
  8
AM_HID
  5
493
 10
12.5281
 20
5.19168
 30
0.000000
  70
    32
  0
VERTEX
  8
AM_HID
  5
494
 10
12.5294
 20
5.19445
 30
0.000000
  70
    32
  0
VERTEX
  8
AM_HID
  5
495
 10
12.5306
 20
5.19721
 30
0.000000
  70
    32
  0
VERTEX
  8
AM_HID
  5
496
 10
12.5318
 20
5.19996
 30
0.000000
  70
    32
  0
VERTEX
  8
AM_HID
  5
497
 10
12.5331
 20
5.20270
 30
0.000000
  70
    32
  0
VERTEX
  8
AM_HID
  5
498
 10
12.5344
 20
5.20544
 30
0.000000
  70
    32
  0
VERTEX
  8
AM_HID
  5
499
 10
12.5357
 20
5.20816
 30
0.000000
  70
    32
  0
VERTEX
  8
AM_HID
  5
49A
 10
12.5370
 20
5.21088
 30
0.000000
  70
    32
  0
VERTEX
  8
AM_HID
  5
49B
 10
12.5383
 20
5.21359
 30
0.000000
  70
    32
  0
VERTEX
  8
AM_HID
  5
49C
 10
12.5396
 20
5.21630
 30
0.000000
  70
    32
  0
VERTEX
  8
AM_HID
  5
49D
 10
12.5409
 20
5.21899
 30
0.000000
  70
    32
  0
VERTEX
  8
AM_HID
  5
49E
 10
12.5423
 20
5.22168
 30
0.000000
  70
    32
  0
VERTEX
  8
AM_HID
  5
49F
 10
12.5436
 20
5.22436
 30
0.000000
  70
    32
  0
VERTEX
  8
AM_HID
  5
4A0
 10
12.5450
 20
5.22703
 30
0.000000
  70
    32
  0
VERTEX
  8
AM_HID
  5
4A1
 10
12.5464
 20
5.22969
 30
0.000000
  70
    32
  0
VERTEX
  8
AM_HID
  5
4A2
 10
12.5478
 20
5.23235
 30
0.000000
  70
    32
  0
VERTEX
  8
AM_HID
  5
4A3
 10
12.5492
 20
5.23500
 30
0.000000
  70
    32
  0
VERTEX
  8
AM_HID
  5
4A4
 10
12.5506
 20
5.23763
 30
0.000000
  70
    32
  0
VERTEX
  8
AM_HID
  5
4A5
 10
12.5520
 20
5.24026
 30
0.000000
  70
    32
  0
VERTEX
  8
AM_HID
  5
4A6
 10
12.5535
 20
5.24288
 30
0.000000
  70
    32
  0
VERTEX
  8
AM_HID
  5
4A7
 10
12.5549
 20
5.24550
 30
0.000000
  70
    32
  0
VERTEX
  8
AM_HID
  5
4A8
 10
12.5564
 20
5.24810
 30
0.000000
  70
    32
  0
VERTEX
  8
AM_HID
  5
4A9
 10
12.5579
 20
5.25070
 30
0.000000
  70
    32
  0
VERTEX
  8
AM_HID
  5
4AA
 10
12.5594
 20
5.25328
 30
0.000000
  70
    32
  0
VERTEX
  8
AM_HID
  5
4AB
 10
12.5608
 20
5.25586
 30
0.000000
  70
    32
  0
VERTEX
  8
AM_HID
  5
4AC
 10
12.5623
 20
5.25843
 30
0.000000
  70
    32
  0
VERTEX
  8
AM_HID
  5
4AD
 10
12.5639
 20
5.26099
 30
0.000000
  70
    32
  0
VERTEX
  8
AM_HID
  5
4AE
 10
12.5654
 20
5.26354
 30
0.000000
  70
    32
  0
VERTEX
  8
AM_HID
  5
4AF
 10
12.5669
 20
5.26608
 30
0.000000
  70
    32
  0
VERTEX
  8
AM_HID
  5
4B0
 10
12.5684
 20
5.26861
 30
0.000000
  70
    32
  0
VERTEX
  8
AM_HID
  5
4B1
 10
12.5700
 20
5.27114
 30
0.000000
  70
    32
  0
VERTEX
  8
AM_HID
  5
4B2
 10
12.5716
 20
5.27365
 30
0.000000
  70
    32
  0
VERTEX
  8
AM_HID
  5
4B3
 10
12.5731
 20
5.27616
 30
0.000000
  70
    32
  0
VERTEX
  8
AM_HID
  5
4B4
 10
12.5747
 20
5.27866
 30
0.000000
  70
    32
  0
VERTEX
  8
AM_HID
  5
4B5
 10
12.5763
 20
5.28114
 30
0.000000
  70
    32
  0
VERTEX
  8
AM_HID
  5
4B6
 10
12.5779
 20
5.28362
 30
0.000000
  70
    32
  0
VERTEX
  8
AM_HID
  5
4B7
 10
12.5795
 20
5.28610
 30
0.000000
  70
    32
  0
VERTEX
  8
AM_HID
  5
4B8
 10
12.5811
 20
5.28856
 30
0.000000
  70
    32
  0
VERTEX
  8
AM_HID
  5
4B9
 10
12.5827
 20
5.29101
 30
0.000000
  70
    32
  0
VERTEX
  8
AM_HID
  5
4BA
 10
12.5843
 20
5.29346
 30
0.000000
  70
    32
  0
VERTEX
  8
AM_HID
  5
4BB
 10
12.5860
 20
5.29590
 30
0.000000
  70
    32
  0
VERTEX
  8
AM_HID
  5
4BC
 10
12.5876
 20
5.29833
 30
0.000000
  70
    32
  0
VERTEX
  8
AM_HID
  5
4BD
 10
12.5893
 20
5.30075
 30
0.000000
  70
    32
  0
VERTEX
  8
AM_HID
  5
4BE
 10
12.5909
 20
5.30317
 30
0.000000
  70
    32
  0
VERTEX
  8
AM_HID
  5
4BF
 10
12.5926
 20
5.30557
 30
0.000000
  70
    32
  0
VERTEX
  8
AM_HID
  5
4C0
 10
12.5942
 20
5.30797
 30
0.000000
  70
    32
  0
VERTEX
  8
AM_HID
  5
4C1
 10
12.5959
 20
5.31036
 30
0.000000
  70
    32
  0
VERTEX
  8
AM_HID
  5
4C2
 10
12.5976
 20
5.31274
 30
0.000000
  70
    32
  0
VERTEX
  8
AM_HID
  5
4C3
 10
12.5993
 20
5.31511
 30
0.000000
  70
    32
  0
VERTEX
  8
AM_HID
  5
4C4
 10
12.6010
 20
5.31747
 30
0.000000
  70
    32
  0
VERTEX
  8
AM_HID
  5
4C5
 10
12.6027
 20
5.31983
 30
0.000000
  70
    32
  0
VERTEX
  8
AM_HID
  5
4C6
 10
12.6044
 20
5.32217
 30
0.000000
  70
    32
  0
VERTEX
  8
AM_HID
  5
4C7
 10
12.6061
 20
5.32451
 30
0.000000
  70
    32
  0
VERTEX
  8
AM_HID
  5
4C8
 10
12.6078
 20
5.32684
 30
0.000000
  70
    32
  0
VERTEX
  8
AM_HID
  5
4C9
 10
12.6096
 20
5.32916
 30
0.000000
  70
    32
  0
VERTEX
  8
AM_HID
  5
4CA
 10
12.6113
 20
5.33148
 30
0.000000
  70
    32
  0
VERTEX
  8
AM_HID
  5
4CB
 10
12.6130
 20
5.33378
 30
0.000000
  70
    32
  0
VERTEX
  8
AM_HID
  5
4CC
 10
12.6148
 20
5.33608
 30
0.000000
  70
    32
  0
VERTEX
  8
AM_HID
  5
4CD
 10
12.6165
 20
5.33837
 30
0.000000
  70
    32
  0
VERTEX
  8
AM_HID
  5
4CE
 10
12.6183
 20
5.34065
 30
0.000000
  70
    32
  0
VERTEX
  8
AM_HID
  5
4CF
 10
12.6200
 20
5.34292
 30
0.000000
  70
    32
  0
VERTEX
  8
AM_HID
  5
4D0
 10
12.6218
 20
5.34518
 30
0.000000
  70
    32
  0
VERTEX
  8
AM_HID
  5
4D1
 10
12.6236
 20
5.34744
 30
0.000000
  70
    32
  0
VERTEX
  8
AM_HID
  5
4D2
 10
12.6253
 20
5.34968
 30
0.000000
  70
    32
  0
VERTEX
  8
AM_HID
  5
4D3
 10
12.6271
 20
5.35192
 30
0.000000
  70
    32
  0
VERTEX
  8
AM_HID
  5
4D4
 10
12.6289
 20
5.35415
 30
0.000000
  70
    32
  0
VERTEX
  8
AM_HID
  5
4D5
 10
12.6307
 20
5.35637
 30
0.000000
  70
    32
  0
VERTEX
  8
AM_HID
  5
4D6
 10
12.6325
 20
5.35859
 30
0.000000
  70
    32
  0
VERTEX
  8
AM_HID
  5
4D7
 10
12.6343
 20
5.36079
 30
0.000000
  70
    32
  0
VERTEX
  8
AM_HID
  5
4D8
 10
12.6361
 20
5.36299
 30
0.000000
  70
    32
  0
VERTEX
  8
AM_HID
  5
4D9
 10
12.6379
 20
5.36518
 30
0.000000
  70
    32
  0
VERTEX
  8
AM_HID
  5
4DA
 10
12.6397
 20
5.36735
 30
0.000000
  70
    32
  0
VERTEX
  8
AM_HID
  5
4DB
 10
12.6415
 20
5.36953
 30
0.000000
  70
    32
  0
VERTEX
  8
AM_HID
  5
4DC
 10
12.6433
 20
5.37169
 30
0.000000
  70
    32
  0
VERTEX
  8
AM_HID
  5
4DD
 10
12.6451
 20
5.37384
 30
0.000000
  70
    32
  0
VERTEX
  8
AM_HID
  5
4DE
 10
12.6469
 20
5.37599
 30
0.000000
  70
    32
  0
VERTEX
  8
AM_HID
  5
4DF
 10
12.6487
 20
5.37813
 30
0.000000
  70
    32
  0
VERTEX
  8
AM_HID
  5
4E0
 10
12.6505
 20
5.38025
 30
0.000000
  70
    32
  0
VERTEX
  8
AM_HID
  5
4E1
 10
12.6523
 20
5.38238
 30
0.000000
  70
    32
  0
VERTEX
  8
AM_HID
  5
4E2
 10
12.6542
 20
5.38449
 30
0.000000
  70
    32
  0
VERTEX
  8
AM_HID
  5
4E3
 10
12.6560
 20
5.38659
 30
0.000000
  70
    32
  0
VERTEX
  8
AM_HID
  5
4E4
 10
12.6578
 20
5.38869
 30
0.000000
  70
    32
  0
VERTEX
  8
AM_HID
  5
4E5
 10
12.6596
 20
5.39077
 30
0.000000
  70
    32
  0
VERTEX
  8
AM_HID
  5
4E6
 10
12.6615
 20
5.39285
 30
0.000000
  70
    32
  0
VERTEX
  8
AM_HID
  5
4E7
 10
12.6633
 20
5.39492
 30
0.000000
  70
    32
  0
VERTEX
  8
AM_HID
  5
4E8
 10
12.6651
 20
5.39698
 30
0.000000
  70
    32
  0
VERTEX
  8
AM_HID
  5
4E9
 10
12.6670
 20
5.39904
 30
0.000000
  70
    32
  0
VERTEX
  8
AM_HID
  5
4EA
 10
12.6688
 20
5.40108
 30
0.000000
  70
    32
  0
VERTEX
  8
AM_HID
  5
4EB
 10
12.6706
 20
5.40312
 30
0.000000
  70
    32
  0
VERTEX
  8
AM_HID
  5
4EC
 10
12.6724
 20
5.40515
 30
0.000000
  70
    32
  0
VERTEX
  8
AM_HID
  5
4ED
 10
12.6743
 20
5.40717
 30
0.000000
  70
    32
  0
VERTEX
  8
AM_HID
  5
4EE
 10
12.6761
 20
5.40918
 30
0.000000
  70
    32
  0
VERTEX
  8
AM_HID
  5
4EF
 10
12.6779
 20
5.41118
 30
0.000000
  70
    32
  0
VERTEX
  8
AM_HID
  5
4F0
 10
12.6798
 20
5.41317
 30
0.000000
  70
    32
  0
VERTEX
  8
AM_HID
  5
4F1
 10
12.6816
 20
5.41516
 30
0.000000
  70
    32
  0
VERTEX
  8
AM_HID
  5
4F2
 10
12.6834
 20
5.41714
 30
0.000000
  70
    32
  0
VERTEX
  8
AM_HID
  5
4F3
 10
12.6853
 20
5.41911
 30
0.000000
  70
    32
  0
VERTEX
  8
AM_HID
  5
4F4
 10
12.6871
 20
5.42107
 30
0.000000
  70
    32
  0
VERTEX
  8
AM_HID
  5
4F5
 10
12.6889
 20
5.42302
 30
0.000000
  70
    32
  0
VERTEX
  8
AM_HID
  5
4F6
 10
12.6908
 20
5.42496
 30
0.000000
  70
    32
  0
VERTEX
  8
AM_HID
  5
4F7
 10
12.6926
 20
5.42690
 30
0.000000
  70
    32
  0
VERTEX
  8
AM_HID
  5
4F8
 10
12.6944
 20
5.42882
 30
0.000000
  70
    32
  0
VERTEX
  8
AM_HID
  5
4F9
 10
12.6963
 20
5.43074
 30
0.000000
  70
    32
  0
VERTEX
  8
AM_HID
  5
4FA
 10
12.6981
 20
5.43265
 30
0.000000
  70
    32
  0
VERTEX
  8
AM_HID
  5
4FB
 10
12.6999
 20
5.43455
 30
0.000000
  70
    32
  0
VERTEX
  8
AM_HID
  5
4FC
 10
12.7017
 20
5.43645
 30
0.000000
  70
    32
  0
VERTEX
  8
AM_HID
  5
4FD
 10
12.7036
 20
5.43833
 30
0.000000
  70
    32
  0
VERTEX
  8
AM_HID
  5
4FE
 10
12.7054
 20
5.44021
 30
0.000000
  70
    32
  0
VERTEX
  8
AM_HID
  5
4FF
 10
12.7072
 20
5.44207
 30
0.000000
  70
    32
  0
VERTEX
  8
AM_HID
  5
500
 10
12.7090
 20
5.44393
 30
0.000000
  70
    32
  0
VERTEX
  8
AM_HID
  5
501
 10
12.7108
 20
5.44578
 30
0.000000
  70
    32
  0
VERTEX
  8
AM_HID
  5
502
 10
12.7127
 20
5.44763
 30
0.000000
  70
    32
  0
VERTEX
  8
AM_HID
  5
503
 10
12.7145
 20
5.44946
 30
0.000000
  70
    32
  0
VERTEX
  8
AM_HID
  5
504
 10
12.7163
 20
5.45129
 30
0.000000
  70
    32
  0
VERTEX
  8
AM_HID
  5
505
 10
12.7181
 20
5.45310
 30
0.000000
  70
    32
  0
VERTEX
  8
AM_HID
  5
506
 10
12.7199
 20
5.45491
 30
0.000000
  70
    32
  0
VERTEX
  8
AM_HID
  5
507
 10
12.7217
 20
5.45671
 30
0.000000
  70
    32
  0
VERTEX
  8
AM_HID
  5
508
 10
12.7235
 20
5.45850
 30
0.000000
  70
    32
  0
VERTEX
  8
AM_HID
  5
509
 10
12.7253
 20
5.46028
 30
0.000000
  70
    32
  0
VERTEX
  8
AM_HID
  5
50A
 10
12.7271
 20
5.46206
 30
0.000000
  70
    32
  0
VERTEX
  8
AM_HID
  5
50B
 10
12.7289
 20
5.46382
 30
0.000000
  70
    32
  0
VERTEX
  8
AM_HID
  5
50C
 10
12.7307
 20
5.46558
 30
0.000000
  70
    32
  0
VERTEX
  8
AM_HID
  5
50D
 10
12.7325
 20
5.46733
 30
0.000000
  70
    32
  0
VERTEX
  8
AM_HID
  5
50E
 10
12.7343
 20
5.46907
 30
0.000000
  70
    32
  0
VERTEX
  8
AM_HID
  5
50F
 10
12.7360
 20
5.47080
 30
0.000000
  70
    32
  0
VERTEX
  8
AM_HID
  5
510
 10
12.7378
 20
5.47252
 30
0.000000
  70
    32
  0
VERTEX
  8
AM_HID
  5
511
 10
12.7396
 20
5.47424
 30
0.000000
  70
    32
  0
VERTEX
  8
AM_HID
  5
512
 10
12.7414
 20
5.47594
 30
0.000000
  70
    32
  0
VERTEX
  8
AM_HID
  5
513
 10
12.7431
 20
5.47764
 30
0.000000
  70
    32
  0
VERTEX
  8
AM_HID
  5
514
 10
12.7449
 20
5.47933
 30
0.000000
  70
    32
  0
VERTEX
  8
AM_HID
  5
515
 10
12.7466
 20
5.48101
 30
0.000000
  70
    32
  0
VERTEX
  8
AM_HID
  5
516
 10
12.7484
 20
5.48268
 30
0.000000
  70
    32
  0
VERTEX
  8
AM_HID
  5
517
 10
12.7501
 20
5.48434
 30
0.000000
  70
    32
  0
VERTEX
  8
AM_HID
  5
518
 10
12.7519
 20
5.48600
 30
0.000000
  70
    32
  0
VERTEX
  8
AM_HID
  5
519
 10
12.7536
 20
5.48764
 30
0.000000
  70
    32
  0
VERTEX
  8
AM_HID
  5
51A
 10
12.7554
 20
5.48928
 30
0.000000
  70
    32
  0
VERTEX
  8
AM_HID
  5
51B
 10
12.7571
 20
5.49091
 30
0.000000
  70
    32
  0
VERTEX
  8
AM_HID
  5
51C
 10
12.7588
 20
5.49253
 30
0.000000
  70
    32
  0
VERTEX
  8
AM_HID
  5
51D
 10
12.7605
 20
5.49414
 30
0.000000
  70
    32
  0
VERTEX
  8
AM_HID
  5
51E
 10
12.7623
 20
5.49574
 30
0.000000
  70
    32
  0
VERTEX
  8
AM_HID
  5
51F
 10
12.7640
 20
5.49734
 30
0.000000
  70
    32
  0
VERTEX
  8
AM_HID
  5
520
 10
12.7657
 20
5.49892
 30
0.000000
  70
    32
  0
VERTEX
  8
AM_HID
  5
521
 10
12.7674
 20
5.50050
 30
0.000000
  70
    32
  0
VERTEX
  8
AM_HID
  5
522
 10
12.7691
 20
5.50207
 30
0.000000
  70
    32
  0
VERTEX
  8
AM_HID
  5
523
 10
12.7708
 20
5.50364
 30
0.000000
  70
    32
  0
VERTEX
  8
AM_HID
  5
524
 10
12.7725
 20
5.50520
 30
0.000000
  70
    32
  0
VERTEX
  8
AM_HID
  5
525
 10
12.7742
 20
5.50675
 30
0.000000
  70
    32
  0
VERTEX
  8
AM_HID
  5
526
 10
12.7759
 20
5.50830
 30
0.000000
  70
    32
  0
VERTEX
  8
AM_HID
  5
527
 10
12.7775
 20
5.50985
 30
0.000000
  70
    32
  0
VERTEX
  8
AM_HID
  5
528
 10
12.7792
 20
5.51139
 30
0.000000
  70
    32
  0
VERTEX
  8
AM_HID
  5
529
 10
12.7809
 20
5.51292
 30
0.000000
  70
    32
  0
VERTEX
  8
AM_HID
  5
52A
 10
12.7826
 20
5.51445
 30
0.000000
  70
    32
  0
VERTEX
  8
AM_HID
  5
52B
 10
12.7843
 20
5.51598
 30
0.000000
  70
    32
  0
VERTEX
  8
AM_HID
  5
52C
 10
12.7860
 20
5.51750
 30
0.000000
  70
    32
  0
VERTEX
  8
AM_HID
  5
52D
 10
12.7876
 20
5.51902
 30
0.000000
  70
    32
  0
VERTEX
  8
AM_HID
  5
52E
 10
12.7893
 20
5.52053
 30
0.000000
  70
    32
  0
VERTEX
  8
AM_HID
  5
52F
 10
12.7910
 20
5.52203
 30
0.000000
  70
    32
  0
VERTEX
  8
AM_HID
  5
530
 10
12.7927
 20
5.52353
 30
0.000000
  70
    32
  0
VERTEX
  8
AM_HID
  5
531
 10
12.7943
 20
5.52503
 30
0.000000
  70
    32
  0
VERTEX
  8
AM_HID
  5
532
 10
12.7960
 20
5.52652
 30
0.000000
  70
    32
  0
VERTEX
  8
AM_HID
  5
533
 10
12.7977
 20
5.52800
 30
0.000000
  70
    32
  0
VERTEX
  8
AM_HID
  5
534
 10
12.7993
 20
5.52948
 30
0.000000
  70
    32
  0
VERTEX
  8
AM_HID
  5
535
 10
12.8010
 20
5.53096
 30
0.000000
  70
    32
  0
VERTEX
  8
AM_HID
  5
536
 10
12.8026
 20
5.53243
 30
0.000000
  70
    32
  0
VERTEX
  8
AM_HID
  5
537
 10
12.8043
 20
5.53389
 30
0.000000
  70
    32
  0
VERTEX
  8
AM_HID
  5
538
 10
12.8059
 20
5.53535
 30
0.000000
  70
    32
  0
VERTEX
  8
AM_HID
  5
539
 10
12.8076
 20
5.53680
 30
0.000000
  70
    32
  0
VERTEX
  8
AM_HID
  5
53A
 10
12.8092
 20
5.53825
 30
0.000000
  70
    32
  0
VERTEX
  8
AM_HID
  5
53B
 10
12.8109
 20
5.53969
 30
0.000000
  70
    32
  0
VERTEX
  8
AM_HID
  5
53C
 10
12.8125
 20
5.54113
 30
0.000000
  70
    32
  0
VERTEX
  8
AM_HID
  5
53D
 10
12.8142
 20
5.54256
 30
0.000000
  70
    32
  0
VERTEX
  8
AM_HID
  5
53E
 10
12.8158
 20
5.54399
 30
0.000000
  70
    32
  0
VERTEX
  8
AM_HID
  5
53F
 10
12.8174
 20
5.54541
 30
0.000000
  70
    32
  0
VERTEX
  8
AM_HID
  5
540
 10
12.8191
 20
5.54683
 30
0.000000
  70
    32
  0
VERTEX
  8
AM_HID
  5
541
 10
12.8207
 20
5.54824
 30
0.000000
  70
    32
  0
VERTEX
  8
AM_HID
  5
542
 10
12.8223
 20
5.54964
 30
0.000000
  70
    32
  0
VERTEX
  8
AM_HID
  5
543
 10
12.8239
 20
5.55104
 30
0.000000
  70
    32
  0
VERTEX
  8
AM_HID
  5
544
 10
12.8255
 20
5.55244
 30
0.000000
  70
    32
  0
VERTEX
  8
AM_HID
  5
545
 10
12.8271
 20
5.55382
 30
0.000000
  70
    32
  0
VERTEX
  8
AM_HID
  5
546
 10
12.8287
 20
5.55521
 30
0.000000
  70
    32
  0
VERTEX
  8
AM_HID
  5
547
 10
12.8303
 20
5.55658
 30
0.000000
  70
    32
  0
VERTEX
  8
AM_HID
  5
548
 10
12.8319
 20
5.55796
 30
0.000000
  70
    32
  0
VERTEX
  8
AM_HID
  5
549
 10
12.8335
 20
5.55932
 30
0.000000
  70
    32
  0
VERTEX
  8
AM_HID
  5
54A
 10
12.8351
 20
5.56068
 30
0.000000
  70
    32
  0
VERTEX
  8
AM_HID
  5
54B
 10
12.8367
 20
5.56203
 30
0.000000
  70
    32
  0
VERTEX
  8
AM_HID
  5
54C
 10
12.8383
 20
5.56338
 30
0.000000
  70
    32
  0
VERTEX
  8
AM_HID
  5
54D
 10
12.8399
 20
5.56473
 30
0.000000
  70
    32
  0
VERTEX
  8
AM_HID
  5
54E
 10
12.8415
 20
5.56606
 30
0.000000
  70
    32
  0
VERTEX
  8
AM_HID
  5
54F
 10
12.8430
 20
5.56739
 30
0.000000
  70
    32
  0
VERTEX
  8
AM_HID
  5
550
 10
12.8446
 20
5.56872
 30
0.000000
  70
    32
  0
VERTEX
  8
AM_HID
  5
551
 10
12.8462
 20
5.57004
 30
0.000000
  70
    32
  0
VERTEX
  8
AM_HID
  5
552
 10
12.8477
 20
5.57135
 30
0.000000
  70
    32
  0
VERTEX
  8
AM_HID
  5
553
 10
12.8493
 20
5.57266
 30
0.000000
  70
    32
  0
VERTEX
  8
AM_HID
  5
554
 10
12.8508
 20
5.57396
 30
0.000000
  70
    32
  0
VERTEX
  8
AM_HID
  5
555
 10
12.8524
 20
5.57526
 30
0.000000
  70
    32
  0
VERTEX
  8
AM_HID
  5
556
 10
12.8539
 20
5.57655
 30
0.000000
  70
    32
  0
VERTEX
  8
AM_HID
  5
557
 10
12.8554
 20
5.57783
 30
0.000000
  70
    32
  0
VERTEX
  8
AM_HID
  5
558
 10
12.8570
 20
5.57911
 30
0.000000
  70
    32
  0
VERTEX
  8
AM_HID
  5
559
 10
12.8585
 20
5.58038
 30
0.000000
  70
    32
  0
VERTEX
  8
AM_HID
  5
55A
 10
12.8600
 20
5.58165
 30
0.000000
  70
    32
  0
VERTEX
  8
AM_HID
  5
55B
 10
12.8615
 20
5.58291
 30
0.000000
  70
    32
  0
VERTEX
  8
AM_HID
  5
55C
 10
12.8630
 20
5.58416
 30
0.000000
  70
    32
  0
VERTEX
  8
AM_HID
  5
55D
 10
12.8645
 20
5.58541
 30
0.000000
  70
    32
  0
VERTEX
  8
AM_HID
  5
55E
 10
12.8660
 20
5.58665
 30
0.000000
  70
    32
  0
VERTEX
  8
AM_HID
  5
55F
 10
12.8675
 20
5.58788
 30
0.000000
  70
    32
  0
VERTEX
  8
AM_HID
  5
560
 10
12.8690
 20
5.58911
 30
0.000000
  70
    32
  0
VERTEX
  8
AM_HID
  5
561
 10
12.8705
 20
5.59034
 30
0.000000
  70
    32
  0
VERTEX
  8
AM_HID
  5
562
 10
12.8720
 20
5.59155
 30
0.000000
  70
    32
  0
VERTEX
  8
AM_HID
  5
563
 10
12.8734
 20
5.59276
 30
0.000000
  70
    32
  0
VERTEX
  8
AM_HID
  5
564
 10
12.8749
 20
5.59397
 30
0.000000
  70
    32
  0
VERTEX
  8
AM_HID
  5
565
 10
12.8764
 20
5.59516
 30
0.000000
  70
    32
  0
VERTEX
  8
AM_HID
  5
566
 10
12.8778
 20
5.59636
 30
0.000000
  70
    32
  0
VERTEX
  8
AM_HID
  5
567
 10
12.8793
 20
5.59754
 30
0.000000
  70
    32
  0
VERTEX
  8
AM_HID
  5
568
 10
12.8807
 20
5.59872
 30
0.000000
  70
    32
  0
VERTEX
  8
AM_HID
  5
569
 10
12.8821
 20
5.59989
 30
0.000000
  70
    32
  0
VERTEX
  8
AM_HID
  5
56A
 10
12.8836
 20
5.60106
 30
0.000000
  70
    32
  0
VERTEX
  8
AM_HID
  5
56B
 10
12.8850
 20
5.60222
 30
0.000000
  70
    32
  0
VERTEX
  8
AM_HID
  5
56C
 10
12.8864
 20
5.60337
 30
0.000000
  70
    32
  0
VERTEX
  8
AM_HID
  5
56D
 10
12.8878
 20
5.60452
 30
0.000000
  70
    32
  0
VERTEX
  8
AM_HID
  5
56E
 10
12.8892
 20
5.60566
 30
0.000000
  70
    32
  0
VERTEX
  8
AM_HID
  5
56F
 10
12.8906
 20
5.60679
 30
0.000000
  70
    32
  0
VERTEX
  8
AM_HID
  5
570
 10
12.8920
 20
5.60792
 30
0.000000
  70
    32
  0
VERTEX
  8
AM_HID
  5
571
 10
12.8934
 20
5.60904
 30
0.000000
  70
    32
  0
VERTEX
  8
AM_HID
  5
572
 10
12.8948
 20
5.61015
 30
0.000000
  70
    32
  0
VERTEX
  8
AM_HID
  5
573
 10
12.8962
 20
5.61126
 30
0.000000
  70
    32
  0
VERTEX
  8
AM_HID
  5
574
 10
12.8975
 20
5.61236
 30
0.000000
  70
    32
  0
VERTEX
  8
AM_HID
  5
575
 10
12.8989
 20
5.61345
 30
0.000000
  70
    32
  0
VERTEX
  8
AM_HID
  5
576
 10
12.9003
 20
5.61454
 30
0.000000
  70
    32
  0
VERTEX
  8
AM_HID
  5
577
 10
12.9016
 20
5.61562
 30
0.000000
  70
    32
  0
VERTEX
  8
AM_HID
  5
578
 10
12.9029
 20
5.61669
 30
0.000000
  70
    32
  0
VERTEX
  8
AM_HID
  5
579
 10
12.9043
 20
5.61776
 30
0.000000
  70
    32
  0
VERTEX
  8
AM_HID
  5
57A
 10
12.9056
 20
5.61882
 30
0.000000
  70
    32
  0
VERTEX
  8
AM_HID
  5
57B
 10
12.9069
 20
5.61987
 30
0.000000
  70
    32
  0
VERTEX
  8
AM_HID
  5
57C
 10
12.9082
 20
5.62092
 30
0.000000
  70
    32
  0
VERTEX
  8
AM_HID
  5
57D
 10
12.9095
 20
5.62196
 30
0.000000
  70
    32
  0
VERTEX
  8
AM_HID
  5
57E
 10
12.9108
 20
5.62299
 30
0.000000
  70
    32
  0
VERTEX
  8
AM_HID
  5
57F
 10
12.9121
 20
5.62401
 30
0.000000
  70
    32
  0
VERTEX
  8
AM_HID
  5
580
 10
12.9134
 20
5.62503
 30
0.000000
  70
    32
  0
VERTEX
  8
AM_HID
  5
581
 10
12.9147
 20
5.62605
 30
0.000000
  70
    32
  0
VERTEX
  8
AM_HID
  5
582
 10
12.9159
 20
5.62705
 30
0.000000
  70
    32
  0
VERTEX
  8
AM_HID
  5
583
 10
12.9172
 20
5.62805
 30
0.000000
  70
    32
  0
VERTEX
  8
AM_HID
  5
584
 10
12.9184
 20
5.62904
 30
0.000000
  70
    32
  0
VERTEX
  8
AM_HID
  5
585
 10
12.9197
 20
5.63002
 30
0.000000
  70
    32
  0
VERTEX
  8
AM_HID
  5
586
 10
12.9209
 20
5.63100
 30
0.000000
  70
    32
  0
VERTEX
  8
AM_HID
  5
587
 10
12.9222
 20
5.63197
 30
0.000000
  70
    32
  0
VERTEX
  8
AM_HID
  5
588
 10
12.9234
 20
5.63293
 30
0.000000
  70
    32
  0
VERTEX
  8
AM_HID
  5
589
 10
12.9246
 20
5.63389
 30
0.000000
  70
    32
  0
VERTEX
  8
AM_HID
  5
58A
 10
12.9258
 20
5.63484
 30
0.000000
  70
    32
  0
VERTEX
  8
AM_HID
  5
58B
 10
12.9270
 20
5.63578
 30
0.000000
  70
    32
  0
VERTEX
  8
AM_HID
  5
58C
 10
12.9282
 20
5.63671
 30
0.000000
  70
    32
  0
VERTEX
  8
AM_HID
  5
58D
 10
12.9294
 20
5.63764
 30
0.000000
  70
    32
  0
VERTEX
  8
AM_HID
  5
58E
 10
12.9305
 20
5.63856
 30
0.000000
  70
    32
  0
VERTEX
  8
AM_HID
  5
58F
 10
12.9317
 20
5.63947
 30
0.000000
  70
    32
  0
VERTEX
  8
AM_HID
  5
590
 10
12.9328
 20
5.64037
 30
0.000000
  70
    32
  0
VERTEX
  8
AM_HID
  5
591
 10
12.9340
 20
5.64127
 30
0.000000
  70
    32
  0
VERTEX
  8
AM_HID
  5
592
 10
12.9351
 20
5.64216
 30
0.000000
  70
    32
  0
VERTEX
  8
AM_HID
  5
593
 10
12.9363
 20
5.64304
 30
0.000000
  70
    32
  0
VERTEX
  8
AM_HID
  5
594
 10
12.9374
 20
5.64392
 30
0.000000
  70
    32
  0
VERTEX
  8
AM_HID
  5
595
 10
12.9385
 20
5.64479
 30
0.000000
  70
    32
  0
VERTEX
  8
AM_HID
  5
596
 10
12.9396
 20
5.64565
 30
0.000000
  70
    32
  0
VERTEX
  8
AM_HID
  5
597
 10
12.9407
 20
5.64650
 30
0.000000
  70
    32
  0
VERTEX
  8
AM_HID
  5
598
 10
12.9418
 20
5.64735
 30
0.000000
  70
    32
  0
VERTEX
  8
AM_HID
  5
599
 10
12.9428
 20
5.64819
 30
0.000000
  70
    32
  0
VERTEX
  8
AM_HID
  5
59A
 10
12.9439
 20
5.64902
 30
0.000000
  70
    32
  0
VERTEX
  8
AM_HID
  5
59B
 10
12.9450
 20
5.64984
 30
0.000000
  70
    32
  0
VERTEX
  8
AM_HID
  5
59C
 10
12.9460
 20
5.65066
 30
0.000000
  70
    32
  0
VERTEX
  8
AM_HID
  5
59D
 10
12.9470
 20
5.65147
 30
0.000000
  70
    32
  0
VERTEX
  8
AM_HID
  5
59E
 10
12.9481
 20
5.65227
 30
0.000000
  70
    32
  0
VERTEX
  8
AM_HID
  5
59F
 10
12.9491
 20
5.65306
 30
0.000000
  70
    32
  0
VERTEX
  8
AM_HID
  5
5A0
 10
12.9501
 20
5.65385
 30
0.000000
  70
    32
  0
VERTEX
  8
AM_HID
  5
5A1
 10
12.9511
 20
5.65462
 30
0.000000
  70
    32
  0
VERTEX
  8
AM_HID
  5
5A2
 10
12.9521
 20
5.65540
 30
0.000000
  70
    32
  0
VERTEX
  8
AM_HID
  5
5A3
 10
12.9531
 20
5.65616
 30
0.000000
  70
    32
  0
VERTEX
  8
AM_HID
  5
5A4
 10
12.9541
 20
5.65691
 30
0.000000
  70
    32
  0
VERTEX
  8
AM_HID
  5
5A5
 10
12.9550
 20
5.65766
 30
0.000000
  70
    32
  0
VERTEX
  8
AM_HID
  5
5A6
 10
12.9560
 20
5.65840
 30
0.000000
  70
    32
  0
VERTEX
  8
AM_HID
  5
5A7
 10
12.9569
 20
5.65914
 30
0.000000
  70
    32
  0
VERTEX
  8
AM_HID
  5
5A8
 10
12.9579
 20
5.65986
 30
0.000000
  70
    32
  0
VERTEX
  8
AM_HID
  5
5A9
 10
12.9588
 20
5.66058
 30
0.000000
  70
    32
  0
VERTEX
  8
AM_HID
  5
5AA
 10
12.9597
 20
5.66130
 30
0.000000
  70
    32
  0
VERTEX
  8
AM_HID
  5
5AB
 10
12.9606
 20
5.66200
 30
0.000000
  70
    32
  0
VERTEX
  8
AM_HID
  5
5AC
 10
12.9615
 20
5.66270
 30
0.000000
  70
    32
  0
VERTEX
  8
AM_HID
  5
5AD
 10
12.9624
 20
5.66338
 30
0.000000
  70
    32
  0
VERTEX
  8
AM_HID
  5
5AE
 10
12.9633
 20
5.66407
 30
0.000000
  70
    32
  0
VERTEX
  8
AM_HID
  5
5AF
 10
12.9642
 20
5.66474
 30
0.000000
  70
    32
  0
VERTEX
  8
AM_HID
  5
5B0
 10
12.9650
 20
5.66541
 30
0.000000
  70
    32
  0
VERTEX
  8
AM_HID
  5
5B1
 10
12.9659
 20
5.66607
 30
0.000000
  70
    32
  0
VERTEX
  8
AM_HID
  5
5B2
 10
12.9668
 20
5.66672
 30
0.000000
  70
    32
  0
VERTEX
  8
AM_HID
  5
5B3
 10
12.9676
 20
5.66736
 30
0.000000
  70
    32
  0
VERTEX
  8
AM_HID
  5
5B4
 10
12.9684
 20
5.66800
 30
0.000000
  70
    32
  0
VERTEX
  8
AM_HID
  5
5B5
 10
12.9692
 20
5.66863
 30
0.000000
  70
    32
  0
VERTEX
  8
AM_HID
  5
5B6
 10
12.9700
 20
5.66925
 30
0.000000
  70
    32
  0
VERTEX
  8
AM_HID
  5
5B7
 10
12.9708
 20
5.66987
 30
0.000000
  70
    32
  0
VERTEX
  8
AM_HID
  5
5B8
 10
12.9716
 20
5.67047
 30
0.000000
  70
    32
  0
VERTEX
  8
AM_HID
  5
5B9
 10
12.9724
 20
5.67107
 30
0.000000
  70
    32
  0
VERTEX
  8
AM_HID
  5
5BA
 10
12.9732
 20
5.67167
 30
0.000000
  70
    32
  0
VERTEX
  8
AM_HID
  5
5BB
 10
12.9740
 20
5.67225
 30
0.000000
  70
    32
  0
VERTEX
  8
AM_HID
  5
5BC
 10
12.9747
 20
5.67283
 30
0.000000
  70
    32
  0
VERTEX
  8
AM_HID
  5
5BD
 10
12.9755
 20
5.67340
 30
0.000000
  70
    32
  0
VERTEX
  8
AM_HID
  5
5BE
 10
12.9762
 20
5.67396
 30
0.000000
  70
    32
  0
VERTEX
  8
AM_HID
  5
5BF
 10
12.9769
 20
5.67452
 30
0.000000
  70
    32
  0
VERTEX
  8
AM_HID
  5
5C0
 10
12.9776
 20
5.67506
 30
0.000000
  70
    32
  0
VERTEX
  8
AM_HID
  5
5C1
 10
12.9783
 20
5.67561
 30
0.000000
  70
    32
  0
VERTEX
  8
AM_HID
  5
5C2
 10
12.9790
 20
5.67614
 30
0.000000
  70
    32
  0
VERTEX
  8
AM_HID
  5
5C3
 10
12.9797
 20
5.67666
 30
0.000000
  70
    32
  0
VERTEX
  8
AM_HID
  5
5C4
 10
12.9804
 20
5.67718
 30
0.000000
  70
    32
  0
VERTEX
  8
AM_HID
  5
5C5
 10
12.9811
 20
5.67769
 30
0.000000
  70
    32
  0
VERTEX
  8
AM_HID
  5
5C6
 10
12.9817
 20
5.67820
 30
0.000000
  70
    32
  0
VERTEX
  8
AM_HID
  5
5C7
 10
12.9824
 20
5.67869
 30
0.000000
  70
    32
  0
VERTEX
  8
AM_HID
  5
5C8
 10
12.9830
 20
5.67918
 30
0.000000
  70
    32
  0
VERTEX
  8
AM_HID
  5
5C9
 10
12.9837
 20
5.67966
 30
0.000000
  70
    32
  0
VERTEX
  8
AM_HID
  5
5CA
 10
12.9843
 20
5.68014
 30
0.000000
  70
    32
  0
VERTEX
  8
AM_HID
  5
5CB
 10
12.9849
 20
5.68060
 30
0.000000
  70
    32
  0
VERTEX
  8
AM_HID
  5
5CC
 10
12.9855
 20
5.68106
 30
0.000000
  70
    32
  0
VERTEX
  8
AM_HID
  5
5CD
 10
12.9861
 20
5.68151
 30
0.000000
  70
    32
  0
VERTEX
  8
AM_HID
  5
5CE
 10
12.9867
 20
5.68196
 30
0.000000
  70
    32
  0
VERTEX
  8
AM_HID
  5
5CF
 10
12.9873
 20
5.68239
 30
0.000000
  70
    32
  0
VERTEX
  8
AM_HID
  5
5D0
 10
12.9878
 20
5.68282
 30
0.000000
  70
    32
  0
VERTEX
  8
AM_HID
  5
5D1
 10
12.9884
 20
5.68325
 30
0.000000
  70
    32
  0
VERTEX
  8
AM_HID
  5
5D2
 10
12.9889
 20
5.68366
 30
0.000000
  70
    32
  0
VERTEX
  8
AM_HID
  5
5D3
 10
12.9895
 20
5.68407
 30
0.000000
  70
    32
  0
VERTEX
  8
AM_HID
  5
5D4
 10
12.9900
 20
5.68447
 30
0.000000
  70
    32
  0
VERTEX
  8
AM_HID
  5
5D5
 10
12.9905
 20
5.68486
 30
0.000000
  70
    32
  0
VERTEX
  8
AM_HID
  5
5D6
 10
12.9910
 20
5.68525
 30
0.000000
  70
    32
  0
VERTEX
  8
AM_HID
  5
5D7
 10
12.9915
 20
5.68562
 30
0.000000
  70
    32
  0
VERTEX
  8
AM_HID
  5
5D8
 10
12.9920
 20
5.68599
 30
0.000000
  70
    32
  0
VERTEX
  8
AM_HID
  5
5D9
 10
12.9925
 20
5.68636
 30
0.000000
  70
    32
  0
VERTEX
  8
AM_HID
  5
5DA
 10
12.9930
 20
5.68671
 30
0.000000
  70
    32
  0
VERTEX
  8
AM_HID
  5
5DB
 10
12.9934
 20
5.68706
 30
0.000000
  70
    32
  0
VERTEX
  8
AM_HID
  5
5DC
 10
12.9939
 20
5.68740
 30
0.000000
  70
    32
  0
VERTEX
  8
AM_HID
  5
5DD
 10
12.9943
 20
5.68774
 30
0.000000
  70
    32
  0
VERTEX
  8
AM_HID
  5
5DE
 10
12.9948
 20
5.68806
 30
0.000000
  70
    32
  0
VERTEX
  8
AM_HID
  5
5DF
 10
12.9952
 20
5.68838
 30
0.000000
  70
    32
  0
VERTEX
  8
AM_HID
  5
5E0
 10
12.9956
 20
5.68869
 30
0.000000
  70
    32
  0
VERTEX
  8
AM_HID
  5
5E1
 10
12.9960
 20
5.68900
 30
0.000000
  70
    32
  0
VERTEX
  8
AM_HID
  5
5E2
 10
12.9964
 20
5.68929
 30
0.000000
  70
    32
  0
VERTEX
  8
AM_HID
  5
5E3
 10
12.9968
 20
5.68958
 30
0.000000
  70
    32
  0
VERTEX
  8
AM_HID
  5
5E4
 10
12.9972
 20
5.68986
 30
0.000000
  70
    32
  0
VERTEX
  8
AM_HID
  5
5E5
 10
12.9975
 20
5.69014
 30
0.000000
  70
    32
  0
VERTEX
  8
AM_HID
  5
5E6
 10
12.9979
 20
5.69041
 30
0.000000
  70
    32
  0
VERTEX
  8
AM_HID
  5
5E7
 10
12.9982
 20
5.69067
 30
0.000000
  70
    32
  0
VERTEX
  8
AM_HID
  5
5E8
 10
12.9986
 20
5.69092
 30
0.000000
  70
    32
  0
VERTEX
  8
AM_HID
  5
5E9
 10
12.9989
 20
5.69116
 30
0.000000
  70
    32
  0
VERTEX
  8
AM_HID
  5
5EA
 10
12.9992
 20
5.69140
 30
0.000000
  70
    32
  0
VERTEX
  8
AM_HID
  5
5EB
 10
12.9995
 20
5.69163
 30
0.000000
  70
    32
  0
VERTEX
  8
AM_HID
  5
5EC
 10
12.9998
 20
5.69186
 30
0.000000
  70
    32
  0
VERTEX
  8
AM_HID
  5
5ED
 10
13.0001
 20
5.69207
 30
0.000000
  70
    32
  0
VERTEX
  8
AM_HID
  5
5EE
 10
13.0004
 20
5.69228
 30
0.000000
  70
    32
  0
VERTEX
  8
AM_HID
  5
5EF
 10
13.0007
 20
5.69248
 30
0.000000
  70
    32
  0
VERTEX
  8
AM_HID
  5
5F0
 10
13.0009
 20
5.69268
 30
0.000000
  70
    32
  0
VERTEX
  8
AM_HID
  5
5F1
 10
13.0012
 20
5.69286
 30
0.000000
  70
    32
  0
VERTEX
  8
AM_HID
  5
5F2
 10
13.0014
 20
5.69304
 30
0.000000
  70
    32
  0
VERTEX
  8
AM_HID
  5
5F3
 10
13.0017
 20
5.69321
 30
0.000000
  70
    32
  0
VERTEX
  8
AM_HID
  5
5F4
 10
13.0019
 20
5.69338
 30
0.000000
  70
    32
  0
VERTEX
  8
AM_HID
  5
5F5
 10
13.0021
 20
5.69353
 30
0.000000
  70
    32
  0
VERTEX
  8
AM_HID
  5
5F6
 10
13.0023
 20
5.69368
 30
0.000000
  70
    32
  0
VERTEX
  8
AM_HID
  5
5F7
 10
13.0025
 20
5.69383
 30
0.000000
  70
    32
  0
VERTEX
  8
AM_HID
  5
5F8
 10
13.0027
 20
5.69396
 30
0.000000
  70
    32
  0
VERTEX
  8
AM_HID
  5
5F9
 10
13.0028
 20
5.69409
 30
0.000000
  70
    32
  0
VERTEX
  8
AM_HID
  5
5FA
 10
13.0030
 20
5.69421
 30
0.000000
  70
    32
  0
VERTEX
  8
AM_HID
  5
5FB
 10
13.0032
 20
5.69432
 30
0.000000
  70
    32
  0
VERTEX
  8
AM_HID
  5
5FC
 10
13.0033
 20
5.69443
 30
0.000000
  70
    32
  0
VERTEX
  8
AM_HID
  5
5FD
 10
13.0034
 20
5.69453
 30
0.000000
  70
    32
  0
VERTEX
  8
AM_HID
  5
5FE
 10
13.0036
 20
5.69462
 30
0.000000
  70
    32
  0
VERTEX
  8
AM_HID
  5
5FF
 10
13.0037
 20
5.69470
 30
0.000000
  70
    32
  0
VERTEX
  8
AM_HID
  5
600
 10
13.0038
 20
5.69478
 30
0.000000
  70
    32
  0
VERTEX
  8
AM_HID
  5
601
 10
13.0039
 20
5.69485
 30
0.000000
  70
    32
  0
VERTEX
  8
AM_HID
  5
602
 10
13.0040
 20
5.69491
 30
0.000000
  70
    32
  0
VERTEX
  8
AM_HID
  5
603
 10
13.0040
 20
5.69497
 30
0.000000
  70
    32
  0
VERTEX
  8
AM_HID
  5
604
 10
13.0041
 20
5.69501
 30
0.000000
  70
    32
  0
VERTEX
  8
AM_HID
  5
605
 10
13.0041
 20
5.69505
 30
0.000000
  70
    32
  0
VERTEX
  8
AM_HID
  5
606
 10
13.0042
 20
5.69509
 30
0.000000
  70
    32
  0
VERTEX
  8
AM_HID
  5
607
 10
13.0042
 20
5.69511
 30
0.000000
  70
    32
  0
VERTEX
  8
AM_HID
  5
608
 10
13.0043
 20
5.69513
 30
0.000000
  70
    32
  0
VERTEX
  8
AM_HID
  5
609
 10
13.0043
 20
5.69514
 30
0.000000
  70
    32
  0
VERTEX
  8
AM_HID
  5
60A
 10
13.0043
 20
5.69515
 30
0.000000
  70
    32
  0
SEQEND
  8
AM_HID
  5
60B
  0
LINE
  5
2E
  8
AM_VIS
 10
10.93427266097596
 20
4.6559151365655893
 30
0.0
 11
13.00427266097596
 21
3.4608000793430622
 31
0.0
  0
LINE
  5
2F
  8
AM_HID
 10
11.96927266097596
 20
5.4532498549684254
 30
0.0
 11
12.21963458713722
 21
5.64210173968711
 31
0.0
  0
LINE
  5
30
  8
AM_VIS
 10
12.21963458713722
 20
5.6421017396871109
 30
0.0
 11
13.00427266097596
 21
6.2339664107195603
 31
0.0
  0
LINE
  5
31
  8
AM_VIS
 10
13.00427266097596
 20
6.3174447384334877
 30
0.0
 11
10.93427266097596
 21
6.3174447384334877
 31
0.0
  0
CIRCLE
  5
32
  8
AM_VIS
 10
11.96927266097596
 20
5.1361947384334883
 30
0.0
 40
0.28125
  0
POLYLINE
  8
AM_VIS
  5
60C
  66
     1
 10
0.000000
 20
0.000000
 30
0.000000
  70
     8
  0
VERTEX
  8
AM_VIS
  5
60D
 10
12.3488
 20
5.13619
 30
0.000000
  70
    32
  0
VERTEX
  8
AM_VIS
  5
60E
 10
12.3488
 20
5.13543
 30
0.000000
  70
    32
  0
VERTEX
  8
AM_VIS
  5
60F
 10
12.3488
 20
5.13466
 30
0.000000
  70
    32
  0
VERTEX
  8
AM_VIS
  5
610
 10
12.3488
 20
5.13389
 30
0.000000
  70
    32
  0
VERTEX
  8
AM_VIS
  5
611
 10
12.3488
 20
5.13312
 30
0.000000
  70
    32
  0
VERTEX
  8
AM_VIS
  5
612
 10
12.3488
 20
5.13235
 30
0.000000
  70
    32
  0
VERTEX
  8
AM_VIS
  5
613
 10
12.3488
 20
5.13158
 30
0.000000
  70
    32
  0
VERTEX
  8
AM_VIS
  5
614
 10
12.3488
 20
5.13081
 30
0.000000
  70
    32
  0
VERTEX
  8
AM_VIS
  5
615
 10
12.3488
 20
5.13004
 30
0.000000
  70
    32
  0
VERTEX
  8
AM_VIS
  5
616
 10
12.3488
 20
5.12928
 30
0.000000
  70
    32
  0
VERTEX
  8
AM_VIS
  5
617
 10
12.3488
 20
5.12851
 30
0.000000
  70
    32
  0
VERTEX
  8
AM_VIS
  5
618
 10
12.3488
 20
5.12774
 30
0.000000
  70
    32
  0
VERTEX
  8
AM_VIS
  5
619
 10
12.3488
 20
5.12697
 30
0.000000
  70
    32
  0
VERTEX
  8
AM_VIS
  5
61A
 10
12.3488
 20
5.12620
 30
0.000000
  70
    32
  0
VERTEX
  8
AM_VIS
  5
61B
 10
12.3487
 20
5.12544
 30
0.000000
  70
    32
  0
VERTEX
  8
AM_VIS
  5
61C
 10
12.3487
 20
5.12467
 30
0.000000
  70
    32
  0
VERTEX
  8
AM_VIS
  5
61D
 10
12.3487
 20
5.12390
 30
0.000000
  70
    32
  0
VERTEX
  8
AM_VIS
  5
61E
 10
12.3487
 20
5.12314
 30
0.000000
  70
    32
  0
VERTEX
  8
AM_VIS
  5
61F
 10
12.3487
 20
5.12237
 30
0.000000
  70
    32
  0
VERTEX
  8
AM_VIS
  5
620
 10
12.3486
 20
5.12160
 30
0.000000
  70
    32
  0
VERTEX
  8
AM_VIS
  5
621
 10
12.3486
 20
5.12083
 30
0.000000
  70
    32
  0
VERTEX
  8
AM_VIS
  5
622
 10
12.3486
 20
5.12007
 30
0.000000
  70
    32
  0
VERTEX
  8
AM_VIS
  5
623
 10
12.3486
 20
5.11930
 30
0.000000
  70
    32
  0
VERTEX
  8
AM_VIS
  5
624
 10
12.3486
 20
5.11853
 30
0.000000
  70
    32
  0
VERTEX
  8
AM_VIS
  5
625
 10
12.3485
 20
5.11777
 30
0.000000
  70
    32
  0
VERTEX
  8
AM_VIS
  5
626
 10
12.3485
 20
5.11700
 30
0.000000
  70
    32
  0
VERTEX
  8
AM_VIS
  5
627
 10
12.3485
 20
5.11624
 30
0.000000
  70
    32
  0
VERTEX
  8
AM_VIS
  5
628
 10
12.3484
 20
5.11547
 30
0.000000
  70
    32
  0
VERTEX
  8
AM_VIS
  5
629
 10
12.3484
 20
5.11471
 30
0.000000
  70
    32
  0
VERTEX
  8
AM_VIS
  5
62A
 10
12.3484
 20
5.11394
 30
0.000000
  70
    32
  0
VERTEX
  8
AM_VIS
  5
62B
 10
12.3483
 20
5.11317
 30
0.000000
  70
    32
  0
VERTEX
  8
AM_VIS
  5
62C
 10
12.3483
 20
5.11241
 30
0.000000
  70
    32
  0
VERTEX
  8
AM_VIS
  5
62D
 10
12.3483
 20
5.11164
 30
0.000000
  70
    32
  0
VERTEX
  8
AM_VIS
  5
62E
 10
12.3482
 20
5.11088
 30
0.000000
  70
    32
  0
VERTEX
  8
AM_VIS
  5
62F
 10
12.3482
 20
5.11011
 30
0.000000
  70
    32
  0
VERTEX
  8
AM_VIS
  5
630
 10
12.3482
 20
5.10935
 30
0.000000
  70
    32
  0
VERTEX
  8
AM_VIS
  5
631
 10
12.3481
 20
5.10858
 30
0.000000
  70
    32
  0
VERTEX
  8
AM_VIS
  5
632
 10
12.3481
 20
5.10782
 30
0.000000
  70
    32
  0
VERTEX
  8
AM_VIS
  5
633
 10
12.3480
 20
5.10705
 30
0.000000
  70
    32
  0
VERTEX
  8
AM_VIS
  5
634
 10
12.3480
 20
5.10629
 30
0.000000
  70
    32
  0
VERTEX
  8
AM_VIS
  5
635
 10
12.3480
 20
5.10553
 30
0.000000
  70
    32
  0
VERTEX
  8
AM_VIS
  5
636
 10
12.3479
 20
5.10476
 30
0.000000
  70
    32
  0
VERTEX
  8
AM_VIS
  5
637
 10
12.3479
 20
5.10400
 30
0.000000
  70
    32
  0
VERTEX
  8
AM_VIS
  5
638
 10
12.3478
 20
5.10323
 30
0.000000
  70
    32
  0
VERTEX
  8
AM_VIS
  5
639
 10
12.3478
 20
5.10247
 30
0.000000
  70
    32
  0
VERTEX
  8
AM_VIS
  5
63A
 10
12.3477
 20
5.10171
 30
0.000000
  70
    32
  0
VERTEX
  8
AM_VIS
  5
63B
 10
12.3477
 20
5.10094
 30
0.000000
  70
    32
  0
VERTEX
  8
AM_VIS
  5
63C
 10
12.3476
 20
5.10018
 30
0.000000
  70
    32
  0
VERTEX
  8
AM_VIS
  5
63D
 10
12.3476
 20
5.09942
 30
0.000000
  70
    32
  0
VERTEX
  8
AM_VIS
  5
63E
 10
12.3475
 20
5.09865
 30
0.000000
  70
    32
  0
VERTEX
  8
AM_VIS
  5
63F
 10
12.3474
 20
5.09789
 30
0.000000
  70
    32
  0
VERTEX
  8
AM_VIS
  5
640
 10
12.3474
 20
5.09713
 30
0.000000
  70
    32
  0
VERTEX
  8
AM_VIS
  5
641
 10
12.3473
 20
5.09636
 30
0.000000
  70
    32
  0
VERTEX
  8
AM_VIS
  5
642
 10
12.3473
 20
5.09560
 30
0.000000
  70
    32
  0
VERTEX
  8
AM_VIS
  5
643
 10
12.3472
 20
5.09484
 30
0.000000
  70
    32
  0
VERTEX
  8
AM_VIS
  5
644
 10
12.3472
 20
5.09408
 30
0.000000
  70
    32
  0
VERTEX
  8
AM_VIS
  5
645
 10
12.3471
 20
5.09331
 30
0.000000
  70
    32
  0
VERTEX
  8
AM_VIS
  5
646
 10
12.3470
 20
5.09255
 30
0.000000
  70
    32
  0
VERTEX
  8
AM_VIS
  5
647
 10
12.3470
 20
5.09179
 30
0.000000
  70
    32
  0
VERTEX
  8
AM_VIS
  5
648
 10
12.3469
 20
5.09103
 30
0.000000
  70
    32
  0
VERTEX
  8
AM_VIS
  5
649
 10
12.3468
 20
5.09027
 30
0.000000
  70
    32
  0
VERTEX
  8
AM_VIS
  5
64A
 10
12.3468
 20
5.08950
 30
0.000000
  70
    32
  0
VERTEX
  8
AM_VIS
  5
64B
 10
12.3467
 20
5.08874
 30
0.000000
  70
    32
  0
VERTEX
  8
AM_VIS
  5
64C
 10
12.3466
 20
5.08798
 30
0.000000
  70
    32
  0
VERTEX
  8
AM_VIS
  5
64D
 10
12.3466
 20
5.08722
 30
0.000000
  70
    32
  0
VERTEX
  8
AM_VIS
  5
64E
 10
12.3465
 20
5.08646
 30
0.000000
  70
    32
  0
VERTEX
  8
AM_VIS
  5
64F
 10
12.3464
 20
5.08570
 30
0.000000
  70
    32
  0
VERTEX
  8
AM_VIS
  5
650
 10
12.3463
 20
5.08494
 30
0.000000
  70
    32
  0
VERTEX
  8
AM_VIS
  5
651
 10
12.3463
 20
5.08418
 30
0.000000
  70
    32
  0
VERTEX
  8
AM_VIS
  5
652
 10
12.3462
 20
5.08341
 30
0.000000
  70
    32
  0
VERTEX
  8
AM_VIS
  5
653
 10
12.3461
 20
5.08265
 30
0.000000
  70
    32
  0
VERTEX
  8
AM_VIS
  5
654
 10
12.3460
 20
5.08189
 30
0.000000
  70
    32
  0
VERTEX
  8
AM_VIS
  5
655
 10
12.3460
 20
5.08113
 30
0.000000
  70
    32
  0
VERTEX
  8
AM_VIS
  5
656
 10
12.3459
 20
5.08037
 30
0.000000
  70
    32
  0
VERTEX
  8
AM_VIS
  5
657
 10
12.3458
 20
5.07961
 30
0.000000
  70
    32
  0
VERTEX
  8
AM_VIS
  5
658
 10
12.3457
 20
5.07885
 30
0.000000
  70
    32
  0
VERTEX
  8
AM_VIS
  5
659
 10
12.3456
 20
5.07809
 30
0.000000
  70
    32
  0
VERTEX
  8
AM_VIS
  5
65A
 10
12.3455
 20
5.07733
 30
0.000000
  70
    32
  0
VERTEX
  8
AM_VIS
  5
65B
 10
12.3455
 20
5.07657
 30
0.000000
  70
    32
  0
VERTEX
  8
AM_VIS
  5
65C
 10
12.3454
 20
5.07581
 30
0.000000
  70
    32
  0
VERTEX
  8
AM_VIS
  5
65D
 10
12.3453
 20
5.07505
 30
0.000000
  70
    32
  0
VERTEX
  8
AM_VIS
  5
65E
 10
12.3452
 20
5.07429
 30
0.000000
  70
    32
  0
VERTEX
  8
AM_VIS
  5
65F
 10
12.3451
 20
5.07353
 30
0.000000
  70
    32
  0
VERTEX
  8
AM_VIS
  5
660
 10
12.3450
 20
5.07277
 30
0.000000
  70
    32
  0
VERTEX
  8
AM_VIS
  5
661
 10
12.3449
 20
5.07201
 30
0.000000
  70
    32
  0
VERTEX
  8
AM_VIS
  5
662
 10
12.3448
 20
5.07126
 30
0.000000
  70
    32
  0
VERTEX
  8
AM_VIS
  5
663
 10
12.3447
 20
5.07050
 30
0.000000
  70
    32
  0
VERTEX
  8
AM_VIS
  5
664
 10
12.3446
 20
5.06974
 30
0.000000
  70
    32
  0
VERTEX
  8
AM_VIS
  5
665
 10
12.3445
 20
5.06898
 30
0.000000
  70
    32
  0
VERTEX
  8
AM_VIS
  5
666
 10
12.3444
 20
5.06822
 30
0.000000
  70
    32
  0
VERTEX
  8
AM_VIS
  5
667
 10
12.3444
 20
5.06746
 30
0.000000
  70
    32
  0
VERTEX
  8
AM_VIS
  5
668
 10
12.3443
 20
5.06670
 30
0.000000
  70
    32
  0
VERTEX
  8
AM_VIS
  5
669
 10
12.3442
 20
5.06594
 30
0.000000
  70
    32
  0
VERTEX
  8
AM_VIS
  5
66A
 10
12.3440
 20
5.06519
 30
0.000000
  70
    32
  0
VERTEX
  8
AM_VIS
  5
66B
 10
12.3439
 20
5.06443
 30
0.000000
  70
    32
  0
VERTEX
  8
AM_VIS
  5
66C
 10
12.3438
 20
5.06367
 30
0.000000
  70
    32
  0
VERTEX
  8
AM_VIS
  5
66D
 10
12.3437
 20
5.06291
 30
0.000000
  70
    32
  0
VERTEX
  8
AM_VIS
  5
66E
 10
12.3436
 20
5.06215
 30
0.000000
  70
    32
  0
VERTEX
  8
AM_VIS
  5
66F
 10
12.3435
 20
5.06139
 30
0.000000
  70
    32
  0
VERTEX
  8
AM_VIS
  5
670
 10
12.3434
 20
5.06064
 30
0.000000
  70
    32
  0
VERTEX
  8
AM_VIS
  5
671
 10
12.3433
 20
5.05988
 30
0.000000
  70
    32
  0
VERTEX
  8
AM_VIS
  5
672
 10
12.3432
 20
5.05912
 30
0.000000
  70
    32
  0
VERTEX
  8
AM_VIS
  5
673
 10
12.3431
 20
5.05836
 30
0.000000
  70
    32
  0
VERTEX
  8
AM_VIS
  5
674
 10
12.3430
 20
5.05761
 30
0.000000
  70
    32
  0
VERTEX
  8
AM_VIS
  5
675
 10
12.3429
 20
5.05685
 30
0.000000
  70
    32
  0
VERTEX
  8
AM_VIS
  5
676
 10
12.3427
 20
5.05609
 30
0.000000
  70
    32
  0
VERTEX
  8
AM_VIS
  5
677
 10
12.3426
 20
5.05533
 30
0.000000
  70
    32
  0
VERTEX
  8
AM_VIS
  5
678
 10
12.3425
 20
5.05458
 30
0.000000
  70
    32
  0
VERTEX
  8
AM_VIS
  5
679
 10
12.3424
 20
5.05382
 30
0.000000
  70
    32
  0
VERTEX
  8
AM_VIS
  5
67A
 10
12.3423
 20
5.05306
 30
0.000000
  70
    32
  0
VERTEX
  8
AM_VIS
  5
67B
 10
12.3422
 20
5.05231
 30
0.000000
  70
    32
  0
VERTEX
  8
AM_VIS
  5
67C
 10
12.3420
 20
5.05155
 30
0.000000
  70
    32
  0
VERTEX
  8
AM_VIS
  5
67D
 10
12.3419
 20
5.05079
 30
0.000000
  70
    32
  0
VERTEX
  8
AM_VIS
  5
67E
 10
12.3418
 20
5.05004
 30
0.000000
  70
    32
  0
VERTEX
  8
AM_VIS
  5
67F
 10
12.3417
 20
5.04928
 30
0.000000
  70
    32
  0
VERTEX
  8
AM_VIS
  5
680
 10
12.3415
 20
5.04852
 30
0.000000
  70
    32
  0
VERTEX
  8
AM_VIS
  5
681
 10
12.3414
 20
5.04777
 30
0.000000
  70
    32
  0
VERTEX
  8
AM_VIS
  5
682
 10
12.3413
 20
5.04701
 30
0.000000
  70
    32
  0
VERTEX
  8
AM_VIS
  5
683
 10
12.3412
 20
5.04626
 30
0.000000
  70
    32
  0
VERTEX
  8
AM_VIS
  5
684
 10
12.3410
 20
5.04550
 30
0.000000
  70
    32
  0
VERTEX
  8
AM_VIS
  5
685
 10
12.3409
 20
5.04474
 30
0.000000
  70
    32
  0
VERTEX
  8
AM_VIS
  5
686
 10
12.3408
 20
5.04399
 30
0.000000
  70
    32
  0
VERTEX
  8
AM_VIS
  5
687
 10
12.3406
 20
5.04323
 30
0.000000
  70
    32
  0
VERTEX
  8
AM_VIS
  5
688
 10
12.3405
 20
5.04248
 30
0.000000
  70
    32
  0
VERTEX
  8
AM_VIS
  5
689
 10
12.3404
 20
5.04172
 30
0.000000
  70
    32
  0
VERTEX
  8
AM_VIS
  5
68A
 10
12.3402
 20
5.04097
 30
0.000000
  70
    32
  0
VERTEX
  8
AM_VIS
  5
68B
 10
12.3401
 20
5.04021
 30
0.000000
  70
    32
  0
VERTEX
  8
AM_VIS
  5
68C
 10
12.3400
 20
5.03946
 30
0.000000
  70
    32
  0
SEQEND
  8
AM_VIS
  5
68D
  0
ARC
  5
34
  8
AM_VIS
 10
11.958784270430771
 20
5.1324061406155579
 30
0.0
 40
0.3692967596140919
 50
271.62821010578
 51
310.70568439048202
  0
ARC
  5
36
  8
AM_VIS
 10
11.750964637779861
 20
5.1282998976179366
 30
0.0
 40
0.5979366130550491
 50
0.7565253451851906
 51
24.138970287673509
  0
POLYLINE
  8
AM_VIS
  5
68E
  66
     1
 10
0.000000
 20
0.000000
 30
0.000000
  70
     8
  0
VERTEX
  8
AM_VIS
  5
68F
 10
12.2196
 20
5.64210
 30
0.000000
  70
    32
  0
VERTEX
  8
AM_VIS
  5
690
 10
12.2194
 20
5.64193
 30
0.000000
  70
    32
  0
VERTEX
  8
AM_VIS
  5
691
 10
12.2192
 20
5.64175
 30
0.000000
  70
    32
  0
VERTEX
  8
AM_VIS
  5
692
 10
12.2189
 20
5.64158
 30
0.000000
  70
    32
  0
VERTEX
  8
AM_VIS
  5
693
 10
12.2187
 20
5.64140
 30
0.000000
  70
    32
  0
VERTEX
  8
AM_VIS
  5
694
 10
12.2185
 20
5.64122
 30
0.000000
  70
    32
  0
VERTEX
  8
AM_VIS
  5
695
 10
12.2183
 20
5.64105
 30
0.000000
  70
    32
  0
VERTEX
  8
AM_VIS
  5
696
 10
12.2180
 20
5.64087
 30
0.000000
  70
    32
  0
VERTEX
  8
AM_VIS
  5
697
 10
12.2178
 20
5.64069
 30
0.000000
  70
    32
  0
VERTEX
  8
AM_VIS
  5
698
 10
12.2176
 20
5.64051
 30
0.000000
  70
    32
  0
VERTEX
  8
AM_VIS
  5
699
 10
12.2174
 20
5.64032
 30
0.000000
  70
    32
  0
VERTEX
  8
AM_VIS
  5
69A
 10
12.2172
 20
5.64014
 30
0.000000
  70
    32
  0
VERTEX
  8
AM_VIS
  5
69B
 10
12.2169
 20
5.63996
 30
0.000000
  70
    32
  0
VERTEX
  8
AM_VIS
  5
69C
 10
12.2167
 20
5.63977
 30
0.000000
  70
    32
  0
VERTEX
  8
AM_VIS
  5
69D
 10
12.2165
 20
5.63959
 30
0.000000
  70
    32
  0
VERTEX
  8
AM_VIS
  5
69E
 10
12.2163
 20
5.63940
 30
0.000000
  70
    32
  0
VERTEX
  8
AM_VIS
  5
69F
 10
12.2161
 20
5.63921
 30
0.000000
  70
    32
  0
VERTEX
  8
AM_VIS
  5
6A0
 10
12.2159
 20
5.63903
 30
0.000000
  70
    32
  0
VERTEX
  8
AM_VIS
  5
6A1
 10
12.2156
 20
5.63884
 30
0.000000
  70
    32
  0
VERTEX
  8
AM_VIS
  5
6A2
 10
12.2154
 20
5.63865
 30
0.000000
  70
    32
  0
VERTEX
  8
AM_VIS
  5
6A3
 10
12.2152
 20
5.63846
 30
0.000000
  70
    32
  0
VERTEX
  8
AM_VIS
  5
6A4
 10
12.2150
 20
5.63826
 30
0.000000
  70
    32
  0
VERTEX
  8
AM_VIS
  5
6A5
 10
12.2148
 20
5.63807
 30
0.000000
  70
    32
  0
VERTEX
  8
AM_VIS
  5
6A6
 10
12.2146
 20
5.63788
 30
0.000000
  70
    32
  0
VERTEX
  8
AM_VIS
  5
6A7
 10
12.2144
 20
5.63768
 30
0.000000
  70
    32
  0
VERTEX
  8
AM_VIS
  5
6A8
 10
12.2142
 20
5.63749
 30
0.000000
  70
    32
  0
VERTEX
  8
AM_VIS
  5
6A9
 10
12.2140
 20
5.63729
 30
0.000000
  70
    32
  0
VERTEX
  8
AM_VIS
  5
6AA
 10
12.2138
 20
5.63709
 30
0.000000
  70
    32
  0
VERTEX
  8
AM_VIS
  5
6AB
 10
12.2136
 20
5.63690
 30
0.000000
  70
    32
  0
VERTEX
  8
AM_VIS
  5
6AC
 10
12.2134
 20
5.63670
 30
0.000000
  70
    32
  0
VERTEX
  8
AM_VIS
  5
6AD
 10
12.2132
 20
5.63650
 30
0.000000
  70
    32
  0
VERTEX
  8
AM_VIS
  5
6AE
 10
12.2130
 20
5.63630
 30
0.000000
  70
    32
  0
VERTEX
  8
AM_VIS
  5
6AF
 10
12.2128
 20
5.63609
 30
0.000000
  70
    32
  0
VERTEX
  8
AM_VIS
  5
6B0
 10
12.2126
 20
5.63589
 30
0.000000
  70
    32
  0
VERTEX
  8
AM_VIS
  5
6B1
 10
12.2124
 20
5.63569
 30
0.000000
  70
    32
  0
VERTEX
  8
AM_VIS
  5
6B2
 10
12.2122
 20
5.63548
 30
0.000000
  70
    32
  0
VERTEX
  8
AM_VIS
  5
6B3
 10
12.2120
 20
5.63528
 30
0.000000
  70
    32
  0
VERTEX
  8
AM_VIS
  5
6B4
 10
12.2118
 20
5.63507
 30
0.000000
  70
    32
  0
VERTEX
  8
AM_VIS
  5
6B5
 10
12.2116
 20
5.63486
 30
0.000000
  70
    32
  0
VERTEX
  8
AM_VIS
  5
6B6
 10
12.2114
 20
5.63465
 30
0.000000
  70
    32
  0
VERTEX
  8
AM_VIS
  5
6B7
 10
12.2112
 20
5.63444
 30
0.000000
  70
    32
  0
VERTEX
  8
AM_VIS
  5
6B8
 10
12.2110
 20
5.63423
 30
0.000000
  70
    32
  0
VERTEX
  8
AM_VIS
  5
6B9
 10
12.2108
 20
5.63402
 30
0.000000
  70
    32
  0
VERTEX
  8
AM_VIS
  5
6BA
 10
12.2106
 20
5.63381
 30
0.000000
  70
    32
  0
VERTEX
  8
AM_VIS
  5
6BB
 10
12.2105
 20
5.63360
 30
0.000000
  70
    32
  0
VERTEX
  8
AM_VIS
  5
6BC
 10
12.2103
 20
5.63338
 30
0.000000
  70
    32
  0
VERTEX
  8
AM_VIS
  5
6BD
 10
12.2101
 20
5.63317
 30
0.000000
  70
    32
  0
VERTEX
  8
AM_VIS
  5
6BE
 10
12.2099
 20
5.63295
 30
0.000000
  70
    32
  0
VERTEX
  8
AM_VIS
  5
6BF
 10
12.2097
 20
5.63273
 30
0.000000
  70
    32
  0
VERTEX
  8
AM_VIS
  5
6C0
 10
12.2095
 20
5.63252
 30
0.000000
  70
    32
  0
VERTEX
  8
AM_VIS
  5
6C1
 10
12.2094
 20
5.63230
 30
0.000000
  70
    32
  0
VERTEX
  8
AM_VIS
  5
6C2
 10
12.2092
 20
5.63208
 30
0.000000
  70
    32
  0
VERTEX
  8
AM_VIS
  5
6C3
 10
12.2090
 20
5.63186
 30
0.000000
  70
    32
  0
VERTEX
  8
AM_VIS
  5
6C4
 10
12.2088
 20
5.63163
 30
0.000000
  70
    32
  0
VERTEX
  8
AM_VIS
  5
6C5
 10
12.2087
 20
5.63141
 30
0.000000
  70
    32
  0
VERTEX
  8
AM_VIS
  5
6C6
 10
12.2085
 20
5.63119
 30
0.000000
  70
    32
  0
VERTEX
  8
AM_VIS
  5
6C7
 10
12.2083
 20
5.63096
 30
0.000000
  70
    32
  0
VERTEX
  8
AM_VIS
  5
6C8
 10
12.2081
 20
5.63074
 30
0.000000
  70
    32
  0
VERTEX
  8
AM_VIS
  5
6C9
 10
12.2080
 20
5.63051
 30
0.000000
  70
    32
  0
VERTEX
  8
AM_VIS
  5
6CA
 10
12.2078
 20
5.63028
 30
0.000000
  70
    32
  0
VERTEX
  8
AM_VIS
  5
6CB
 10
12.2076
 20
5.63005
 30
0.000000
  70
    32
  0
VERTEX
  8
AM_VIS
  5
6CC
 10
12.2075
 20
5.62982
 30
0.000000
  70
    32
  0
VERTEX
  8
AM_VIS
  5
6CD
 10
12.2073
 20
5.62959
 30
0.000000
  70
    32
  0
VERTEX
  8
AM_VIS
  5
6CE
 10
12.2072
 20
5.62936
 30
0.000000
  70
    32
  0
VERTEX
  8
AM_VIS
  5
6CF
 10
12.2070
 20
5.62913
 30
0.000000
  70
    32
  0
VERTEX
  8
AM_VIS
  5
6D0
 10
12.2068
 20
5.62889
 30
0.000000
  70
    32
  0
VERTEX
  8
AM_VIS
  5
6D1
 10
12.2067
 20
5.62866
 30
0.000000
  70
    32
  0
VERTEX
  8
AM_VIS
  5
6D2
 10
12.2065
 20
5.62842
 30
0.000000
  70
    32
  0
VERTEX
  8
AM_VIS
  5
6D3
 10
12.2064
 20
5.62818
 30
0.000000
  70
    32
  0
VERTEX
  8
AM_VIS
  5
6D4
 10
12.2062
 20
5.62795
 30
0.000000
  70
    32
  0
VERTEX
  8
AM_VIS
  5
6D5
 10
12.2061
 20
5.62771
 30
0.000000
  70
    32
  0
VERTEX
  8
AM_VIS
  5
6D6
 10
12.2059
 20
5.62747
 30
0.000000
  70
    32
  0
VERTEX
  8
AM_VIS
  5
6D7
 10
12.2058
 20
5.62723
 30
0.000000
  70
    32
  0
VERTEX
  8
AM_VIS
  5
6D8
 10
12.2056
 20
5.62698
 30
0.000000
  70
    32
  0
VERTEX
  8
AM_VIS
  5
6D9
 10
12.2055
 20
5.62674
 30
0.000000
  70
    32
  0
VERTEX
  8
AM_VIS
  5
6DA
 10
12.2053
 20
5.62650
 30
0.000000
  70
    32
  0
VERTEX
  8
AM_VIS
  5
6DB
 10
12.2052
 20
5.62625
 30
0.000000
  70
    32
  0
VERTEX
  8
AM_VIS
  5
6DC
 10
12.2050
 20
5.62601
 30
0.000000
  70
    32
  0
VERTEX
  8
AM_VIS
  5
6DD
 10
12.2049
 20
5.62576
 30
0.000000
  70
    32
  0
VERTEX
  8
AM_VIS
  5
6DE
 10
12.2047
 20
5.62551
 30
0.000000
  70
    32
  0
VERTEX
  8
AM_VIS
  5
6DF
 10
12.2046
 20
5.62526
 30
0.000000
  70
    32
  0
VERTEX
  8
AM_VIS
  5
6E0
 10
12.2045
 20
5.62501
 30
0.000000
  70
    32
  0
VERTEX
  8
AM_VIS
  5
6E1
 10
12.2043
 20
5.62476
 30
0.000000
  70
    32
  0
VERTEX
  8
AM_VIS
  5
6E2
 10
12.2042
 20
5.62451
 30
0.000000
  70
    32
  0
VERTEX
  8
AM_VIS
  5
6E3
 10
12.2041
 20
5.62426
 30
0.000000
  70
    32
  0
VERTEX
  8
AM_VIS
  5
6E4
 10
12.2039
 20
5.62401
 30
0.000000
  70
    32
  0
VERTEX
  8
AM_VIS
  5
6E5
 10
12.2038
 20
5.62375
 30
0.000000
  70
    32
  0
VERTEX
  8
AM_VIS
  5
6E6
 10
12.2037
 20
5.62350
 30
0.000000
  70
    32
  0
VERTEX
  8
AM_VIS
  5
6E7
 10
12.2035
 20
5.62325
 30
0.000000
  70
    32
  0
VERTEX
  8
AM_VIS
  5
6E8
 10
12.2034
 20
5.62299
 30
0.000000
  70
    32
  0
VERTEX
  8
AM_VIS
  5
6E9
 10
12.2033
 20
5.62274
 30
0.000000
  70
    32
  0
VERTEX
  8
AM_VIS
  5
6EA
 10
12.2032
 20
5.62248
 30
0.000000
  70
    32
  0
VERTEX
  8
AM_VIS
  5
6EB
 10
12.2031
 20
5.62222
 30
0.000000
  70
    32
  0
VERTEX
  8
AM_VIS
  5
6EC
 10
12.2029
 20
5.62197
 30
0.000000
  70
    32
  0
VERTEX
  8
AM_VIS
  5
6ED
 10
12.2028
 20
5.62171
 30
0.000000
  70
    32
  0
VERTEX
  8
AM_VIS
  5
6EE
 10
12.2027
 20
5.62145
 30
0.000000
  70
    32
  0
VERTEX
  8
AM_VIS
  5
6EF
 10
12.2026
 20
5.62119
 30
0.000000
  70
    32
  0
VERTEX
  8
AM_VIS
  5
6F0
 10
12.2025
 20
5.62093
 30
0.000000
  70
    32
  0
VERTEX
  8
AM_VIS
  5
6F1
 10
12.2024
 20
5.62068
 30
0.000000
  70
    32
  0
VERTEX
  8
AM_VIS
  5
6F2
 10
12.2023
 20
5.62041
 30
0.000000
  70
    32
  0
VERTEX
  8
AM_VIS
  5
6F3
 10
12.2022
 20
5.62015
 30
0.000000
  70
    32
  0
VERTEX
  8
AM_VIS
  5
6F4
 10
12.2021
 20
5.61989
 30
0.000000
  70
    32
  0
VERTEX
  8
AM_VIS
  5
6F5
 10
12.2020
 20
5.61963
 30
0.000000
  70
    32
  0
VERTEX
  8
AM_VIS
  5
6F6
 10
12.2019
 20
5.61937
 30
0.000000
  70
    32
  0
VERTEX
  8
AM_VIS
  5
6F7
 10
12.2018
 20
5.61910
 30
0.000000
  70
    32
  0
VERTEX
  8
AM_VIS
  5
6F8
 10
12.2017
 20
5.61884
 30
0.000000
  70
    32
  0
VERTEX
  8
AM_VIS
  5
6F9
 10
12.2016
 20
5.61858
 30
0.000000
  70
    32
  0
VERTEX
  8
AM_VIS
  5
6FA
 10
12.2015
 20
5.61831
 30
0.000000
  70
    32
  0
VERTEX
  8
AM_VIS
  5
6FB
 10
12.2014
 20
5.61805
 30
0.000000
  70
    32
  0
VERTEX
  8
AM_VIS
  5
6FC
 10
12.2013
 20
5.61778
 30
0.000000
  70
    32
  0
VERTEX
  8
AM_VIS
  5
6FD
 10
12.2012
 20
5.61751
 30
0.000000
  70
    32
  0
VERTEX
  8
AM_VIS
  5
6FE
 10
12.2011
 20
5.61725
 30
0.000000
  70
    32
  0
VERTEX
  8
AM_VIS
  5
6FF
 10
12.2010
 20
5.61698
 30
0.000000
  70
    32
  0
VERTEX
  8
AM_VIS
  5
700
 10
12.2009
 20
5.61671
 30
0.000000
  70
    32
  0
VERTEX
  8
AM_VIS
  5
701
 10
12.2008
 20
5.61644
 30
0.000000
  70
    32
  0
VERTEX
  8
AM_VIS
  5
702
 10
12.2008
 20
5.61617
 30
0.000000
  70
    32
  0
VERTEX
  8
AM_VIS
  5
703
 10
12.2007
 20
5.61590
 30
0.000000
  70
    32
  0
VERTEX
  8
AM_VIS
  5
704
 10
12.2006
 20
5.61563
 30
0.000000
  70
    32
  0
VERTEX
  8
AM_VIS
  5
705
 10
12.2005
 20
5.61536
 30
0.000000
  70
    32
  0
VERTEX
  8
AM_VIS
  5
706
 10
12.2004
 20
5.61509
 30
0.000000
  70
    32
  0
VERTEX
  8
AM_VIS
  5
707
 10
12.2004
 20
5.61482
 30
0.000000
  70
    32
  0
VERTEX
  8
AM_VIS
  5
708
 10
12.2003
 20
5.61454
 30
0.000000
  70
    32
  0
VERTEX
  8
AM_VIS
  5
709
 10
12.2002
 20
5.61427
 30
0.000000
  70
    32
  0
VERTEX
  8
AM_VIS
  5
70A
 10
12.2001
 20
5.61400
 30
0.000000
  70
    32
  0
VERTEX
  8
AM_VIS
  5
70B
 10
12.2001
 20
5.61372
 30
0.000000
  70
    32
  0
VERTEX
  8
AM_VIS
  5
70C
 10
12.2000
 20
5.61345
 30
0.000000
  70
    32
  0
VERTEX
  8
AM_VIS
  5
70D
 10
12.1999
 20
5.61317
 30
0.000000
  70
    32
  0
VERTEX
  8
AM_VIS
  5
70E
 10
12.1999
 20
5.61289
 30
0.000000
  70
    32
  0
VERTEX
  8
AM_VIS
  5
70F
 10
12.1998
 20
5.61262
 30
0.000000
  70
    32
  0
VERTEX
  8
AM_VIS
  5
710
 10
12.1997
 20
5.61234
 30
0.000000
  70
    32
  0
VERTEX
  8
AM_VIS
  5
711
 10
12.1997
 20
5.61206
 30
0.000000
  70
    32
  0
VERTEX
  8
AM_VIS
  5
712
 10
12.1996
 20
5.61178
 30
0.000000
  70
    32
  0
VERTEX
  8
AM_VIS
  5
713
 10
12.1996
 20
5.61150
 30
0.000000
  70
    32
  0
VERTEX
  8
AM_VIS
  5
714
 10
12.1995
 20
5.61122
 30
0.000000
  70
    32
  0
VERTEX
  8
AM_VIS
  5
715
 10
12.1995
 20
5.61094
 30
0.000000
  70
    32
  0
VERTEX
  8
AM_VIS
  5
716
 10
12.1994
 20
5.61066
 30
0.000000
  70
    32
  0
VERTEX
  8
AM_VIS
  5
717
 10
12.1994
 20
5.61038
 30
0.000000
  70
    32
  0
VERTEX
  8
AM_VIS
  5
718
 10
12.1993
 20
5.61010
 30
0.000000
  70
    32
  0
VERTEX
  8
AM_VIS
  5
719
 10
12.1993
 20
5.60982
 30
0.000000
  70
    32
  0
VERTEX
  8
AM_VIS
  5
71A
 10
12.1992
 20
5.60953
 30
0.000000
  70
    32
  0
VERTEX
  8
AM_VIS
  5
71B
 10
12.1992
 20
5.60925
 30
0.000000
  70
    32
  0
VERTEX
  8
AM_VIS
  5
71C
 10
12.1991
 20
5.60897
 30
0.000000
  70
    32
  0
VERTEX
  8
AM_VIS
  5
71D
 10
12.1991
 20
5.60869
 30
0.000000
  70
    32
  0
VERTEX
  8
AM_VIS
  5
71E
 10
12.1990
 20
5.60840
 30
0.000000
  70
    32
  0
VERTEX
  8
AM_VIS
  5
71F
 10
12.1990
 20
5.60812
 30
0.000000
  70
    32
  0
VERTEX
  8
AM_VIS
  5
720
 10
12.1990
 20
5.60784
 30
0.000000
  70
    32
  0
VERTEX
  8
AM_VIS
  5
721
 10
12.1989
 20
5.60755
 30
0.000000
  70
    32
  0
VERTEX
  8
AM_VIS
  5
722
 10
12.1989
 20
5.60727
 30
0.000000
  70
    32
  0
VERTEX
  8
AM_VIS
  5
723
 10
12.1989
 20
5.60699
 30
0.000000
  70
    32
  0
VERTEX
  8
AM_VIS
  5
724
 10
12.1988
 20
5.60670
 30
0.000000
  70
    32
  0
VERTEX
  8
AM_VIS
  5
725
 10
12.1988
 20
5.60642
 30
0.000000
  70
    32
  0
VERTEX
  8
AM_VIS
  5
726
 10
12.1988
 20
5.60613
 30
0.000000
  70
    32
  0
VERTEX
  8
AM_VIS
  5
727
 10
12.1987
 20
5.60585
 30
0.000000
  70
    32
  0
VERTEX
  8
AM_VIS
  5
728
 10
12.1987
 20
5.60556
 30
0.000000
  70
    32
  0
VERTEX
  8
AM_VIS
  5
729
 10
12.1987
 20
5.60528
 30
0.000000
  70
    32
  0
VERTEX
  8
AM_VIS
  5
72A
 10
12.1987
 20
5.60499
 30
0.000000
  70
    32
  0
VERTEX
  8
AM_VIS
  5
72B
 10
12.1986
 20
5.60471
 30
0.000000
  70
    32
  0
VERTEX
  8
AM_VIS
  5
72C
 10
12.1986
 20
5.60442
 30
0.000000
  70
    32
  0
VERTEX
  8
AM_VIS
  5
72D
 10
12.1986
 20
5.60414
 30
0.000000
  70
    32
  0
VERTEX
  8
AM_VIS
  5
72E
 10
12.1986
 20
5.60385
 30
0.000000
  70
    32
  0
VERTEX
  8
AM_VIS
  5
72F
 10
12.1986
 20
5.60357
 30
0.000000
  70
    32
  0
VERTEX
  8
AM_VIS
  5
730
 10
12.1985
 20
5.60328
 30
0.000000
  70
    32
  0
VERTEX
  8
AM_VIS
  5
731
 10
12.1985
 20
5.60299
 30
0.000000
  70
    32
  0
VERTEX
  8
AM_VIS
  5
732
 10
12.1985
 20
5.60271
 30
0.000000
  70
    32
  0
VERTEX
  8
AM_VIS
  5
733
 10
12.1985
 20
5.60242
 30
0.000000
  70
    32
  0
VERTEX
  8
AM_VIS
  5
734
 10
12.1985
 20
5.60214
 30
0.000000
  70
    32
  0
VERTEX
  8
AM_VIS
  5
735
 10
12.1985
 20
5.60185
 30
0.000000
  70
    32
  0
VERTEX
  8
AM_VIS
  5
736
 10
12.1985
 20
5.60156
 30
0.000000
  70
    32
  0
VERTEX
  8
AM_VIS
  5
737
 10
12.1985
 20
5.60128
 30
0.000000
  70
    32
  0
VERTEX
  8
AM_VIS
  5
738
 10
12.1985
 20
5.60099
 30
0.000000
  70
    32
  0
VERTEX
  8
AM_VIS
  5
739
 10
12.1985
 20
5.60070
 30
0.000000
  70
    32
  0
VERTEX
  8
AM_VIS
  5
73A
 10
12.1985
 20
5.60042
 30
0.000000
  70
    32
  0
VERTEX
  8
AM_VIS
  5
73B
 10
12.1984
 20
5.60013
 30
0.000000
  70
    32
  0
VERTEX
  8
AM_VIS
  5
73C
 10
12.1984
 20
5.59984
 30
0.000000
  70
    32
  0
VERTEX
  8
AM_VIS
  5
73D
 10
12.1984
 20
5.59956
 30
0.000000
  70
    32
  0
VERTEX
  8
AM_VIS
  5
73E
 10
12.1985
 20
5.59927
 30
0.000000
  70
    32
  0
VERTEX
  8
AM_VIS
  5
73F
 10
12.1985
 20
5.59898
 30
0.000000
  70
    32
  0
VERTEX
  8
AM_VIS
  5
740
 10
12.1985
 20
5.59870
 30
0.000000
  70
    32
  0
VERTEX
  8
AM_VIS
  5
741
 10
12.1985
 20
5.59841
 30
0.000000
  70
    32
  0
VERTEX
  8
AM_VIS
  5
742
 10
12.1985
 20
5.59812
 30
0.000000
  70
    32
  0
VERTEX
  8
AM_VIS
  5
743
 10
12.1985
 20
5.59783
 30
0.000000
  70
    32
  0
VERTEX
  8
AM_VIS
  5
744
 10
12.1985
 20
5.59755
 30
0.000000
  70
    32
  0
VERTEX
  8
AM_VIS
  5
745
 10
12.1985
 20
5.59726
 30
0.000000
  70
    32
  0
VERTEX
  8
AM_VIS
  5
746
 10
12.1985
 20
5.59697
 30
0.000000
  70
    32
  0
VERTEX
  8
AM_VIS
  5
747
 10
12.1985
 20
5.59669
 30
0.000000
  70
    32
  0
VERTEX
  8
AM_VIS
  5
748
 10
12.1985
 20
5.59640
 30
0.000000
  70
    32
  0
VERTEX
  8
AM_VIS
  5
749
 10
12.1985
 20
5.59611
 30
0.000000
  70
    32
  0
VERTEX
  8
AM_VIS
  5
74A
 10
12.1986
 20
5.59582
 30
0.000000
  70
    32
  0
VERTEX
  8
AM_VIS
  5
74B
 10
12.1986
 20
5.59554
 30
0.000000
  70
    32
  0
VERTEX
  8
AM_VIS
  5
74C
 10
12.1986
 20
5.59525
 30
0.000000
  70
    32
  0
VERTEX
  8
AM_VIS
  5
74D
 10
12.1986
 20
5.59496
 30
0.000000
  70
    32
  0
VERTEX
  8
AM_VIS
  5
74E
 10
12.1986
 20
5.59468
 30
0.000000
  70
    32
  0
VERTEX
  8
AM_VIS
  5
74F
 10
12.1987
 20
5.59439
 30
0.000000
  70
    32
  0
VERTEX
  8
AM_VIS
  5
750
 10
12.1987
 20
5.59410
 30
0.000000
  70
    32
  0
VERTEX
  8
AM_VIS
  5
751
 10
12.1987
 20
5.59382
 30
0.000000
  70
    32
  0
VERTEX
  8
AM_VIS
  5
752
 10
12.1987
 20
5.59353
 30
0.000000
  70
    32
  0
VERTEX
  8
AM_VIS
  5
753
 10
12.1987
 20
5.59324
 30
0.000000
  70
    32
  0
VERTEX
  8
AM_VIS
  5
754
 10
12.1988
 20
5.59296
 30
0.000000
  70
    32
  0
VERTEX
  8
AM_VIS
  5
755
 10
12.1988
 20
5.59267
 30
0.000000
  70
    32
  0
VERTEX
  8
AM_VIS
  5
756
 10
12.1988
 20
5.59238
 30
0.000000
  70
    32
  0
VERTEX
  8
AM_VIS
  5
757
 10
12.1989
 20
5.59210
 30
0.000000
  70
    32
  0
VERTEX
  8
AM_VIS
  5
758
 10
12.1989
 20
5.59181
 30
0.000000
  70
    32
  0
VERTEX
  8
AM_VIS
  5
759
 10
12.1989
 20
5.59152
 30
0.000000
  70
    32
  0
VERTEX
  8
AM_VIS
  5
75A
 10
12.1989
 20
5.59124
 30
0.000000
  70
    32
  0
VERTEX
  8
AM_VIS
  5
75B
 10
12.1990
 20
5.59095
 30
0.000000
  70
    32
  0
VERTEX
  8
AM_VIS
  5
75C
 10
12.1990
 20
5.59067
 30
0.000000
  70
    32
  0
VERTEX
  8
AM_VIS
  5
75D
 10
12.1990
 20
5.59038
 30
0.000000
  70
    32
  0
VERTEX
  8
AM_VIS
  5
75E
 10
12.1991
 20
5.59010
 30
0.000000
  70
    32
  0
VERTEX
  8
AM_VIS
  5
75F
 10
12.1991
 20
5.58981
 30
0.000000
  70
    32
  0
VERTEX
  8
AM_VIS
  5
760
 10
12.1992
 20
5.58952
 30
0.000000
  70
    32
  0
VERTEX
  8
AM_VIS
  5
761
 10
12.1992
 20
5.58924
 30
0.000000
  70
    32
  0
VERTEX
  8
AM_VIS
  5
762
 10
12.1992
 20
5.58895
 30
0.000000
  70
    32
  0
VERTEX
  8
AM_VIS
  5
763
 10
12.1993
 20
5.58867
 30
0.000000
  70
    32
  0
VERTEX
  8
AM_VIS
  5
764
 10
12.1993
 20
5.58838
 30
0.000000
  70
    32
  0
VERTEX
  8
AM_VIS
  5
765
 10
12.1994
 20
5.58810
 30
0.000000
  70
    32
  0
VERTEX
  8
AM_VIS
  5
766
 10
12.1994
 20
5.58781
 30
0.000000
  70
    32
  0
VERTEX
  8
AM_VIS
  5
767
 10
12.1994
 20
5.58753
 30
0.000000
  70
    32
  0
VERTEX
  8
AM_VIS
  5
768
 10
12.1995
 20
5.58725
 30
0.000000
  70
    32
  0
VERTEX
  8
AM_VIS
  5
769
 10
12.1995
 20
5.58696
 30
0.000000
  70
    32
  0
VERTEX
  8
AM_VIS
  5
76A
 10
12.1996
 20
5.58668
 30
0.000000
  70
    32
  0
VERTEX
  8
AM_VIS
  5
76B
 10
12.1996
 20
5.58639
 30
0.000000
  70
    32
  0
VERTEX
  8
AM_VIS
  5
76C
 10
12.1997
 20
5.58610
 30
0.000000
  70
    32
  0
VERTEX
  8
AM_VIS
  5
76D
 10
12.1997
 20
5.58582
 30
0.000000
  70
    32
  0
VERTEX
  8
AM_VIS
  5
76E
 10
12.1998
 20
5.58553
 30
0.000000
  70
    32
  0
VERTEX
  8
AM_VIS
  5
76F
 10
12.1998
 20
5.58524
 30
0.000000
  70
    32
  0
VERTEX
  8
AM_VIS
  5
770
 10
12.1999
 20
5.58496
 30
0.000000
  70
    32
  0
VERTEX
  8
AM_VIS
  5
771
 10
12.1999
 20
5.58467
 30
0.000000
  70
    32
  0
VERTEX
  8
AM_VIS
  5
772
 10
12.2000
 20
5.58438
 30
0.000000
  70
    32
  0
VERTEX
  8
AM_VIS
  5
773
 10
12.2000
 20
5.58409
 30
0.000000
  70
    32
  0
VERTEX
  8
AM_VIS
  5
774
 10
12.2001
 20
5.58380
 30
0.000000
  70
    32
  0
VERTEX
  8
AM_VIS
  5
775
 10
12.2001
 20
5.58351
 30
0.000000
  70
    32
  0
VERTEX
  8
AM_VIS
  5
776
 10
12.2002
 20
5.58322
 30
0.000000
  70
    32
  0
VERTEX
  8
AM_VIS
  5
777
 10
12.2003
 20
5.58292
 30
0.000000
  70
    32
  0
VERTEX
  8
AM_VIS
  5
778
 10
12.2003
 20
5.58263
 30
0.000000
  70
    32
  0
VERTEX
  8
AM_VIS
  5
779
 10
12.2004
 20
5.58234
 30
0.000000
  70
    32
  0
VERTEX
  8
AM_VIS
  5
77A
 10
12.2004
 20
5.58204
 30
0.000000
  70
    32
  0
VERTEX
  8
AM_VIS
  5
77B
 10
12.2005
 20
5.58175
 30
0.000000
  70
    32
  0
VERTEX
  8
AM_VIS
  5
77C
 10
12.2006
 20
5.58146
 30
0.000000
  70
    32
  0
VERTEX
  8
AM_VIS
  5
77D
 10
12.2006
 20
5.58116
 30
0.000000
  70
    32
  0
VERTEX
  8
AM_VIS
  5
77E
 10
12.2007
 20
5.58087
 30
0.000000
  70
    32
  0
VERTEX
  8
AM_VIS
  5
77F
 10
12.2007
 20
5.58057
 30
0.000000
  70
    32
  0
VERTEX
  8
AM_VIS
  5
780
 10
12.2008
 20
5.58027
 30
0.000000
  70
    32
  0
VERTEX
  8
AM_VIS
  5
781
 10
12.2009
 20
5.57998
 30
0.000000
  70
    32
  0
VERTEX
  8
AM_VIS
  5
782
 10
12.2009
 20
5.57968
 30
0.000000
  70
    32
  0
VERTEX
  8
AM_VIS
  5
783
 10
12.2010
 20
5.57938
 30
0.000000
  70
    32
  0
VERTEX
  8
AM_VIS
  5
784
 10
12.2011
 20
5.57908
 30
0.000000
  70
    32
  0
VERTEX
  8
AM_VIS
  5
785
 10
12.2012
 20
5.57878
 30
0.000000
  70
    32
  0
VERTEX
  8
AM_VIS
  5
786
 10
12.2012
 20
5.57848
 30
0.000000
  70
    32
  0
VERTEX
  8
AM_VIS
  5
787
 10
12.2013
 20
5.57818
 30
0.000000
  70
    32
  0
VERTEX
  8
AM_VIS
  5
788
 10
12.2014
 20
5.57788
 30
0.000000
  70
    32
  0
VERTEX
  8
AM_VIS
  5
789
 10
12.2014
 20
5.57758
 30
0.000000
  70
    32
  0
VERTEX
  8
AM_VIS
  5
78A
 10
12.2015
 20
5.57728
 30
0.000000
  70
    32
  0
VERTEX
  8
AM_VIS
  5
78B
 10
12.2016
 20
5.57697
 30
0.000000
  70
    32
  0
VERTEX
  8
AM_VIS
  5
78C
 10
12.2017
 20
5.57667
 30
0.000000
  70
    32
  0
VERTEX
  8
AM_VIS
  5
78D
 10
12.2017
 20
5.57637
 30
0.000000
  70
    32
  0
VERTEX
  8
AM_VIS
  5
78E
 10
12.2018
 20
5.57606
 30
0.000000
  70
    32
  0
VERTEX
  8
AM_VIS
  5
78F
 10
12.2019
 20
5.57576
 30
0.000000
  70
    32
  0
VERTEX
  8
AM_VIS
  5
790
 10
12.2020
 20
5.57545
 30
0.000000
  70
    32
  0
VERTEX
  8
AM_VIS
  5
791
 10
12.2021
 20
5.57514
 30
0.000000
  70
    32
  0
VERTEX
  8
AM_VIS
  5
792
 10
12.2021
 20
5.57484
 30
0.000000
  70
    32
  0
VERTEX
  8
AM_VIS
  5
793
 10
12.2022
 20
5.57453
 30
0.000000
  70
    32
  0
VERTEX
  8
AM_VIS
  5
794
 10
12.2023
 20
5.57422
 30
0.000000
  70
    32
  0
VERTEX
  8
AM_VIS
  5
795
 10
12.2024
 20
5.57391
 30
0.000000
  70
    32
  0
VERTEX
  8
AM_VIS
  5
796
 10
12.2025
 20
5.57360
 30
0.000000
  70
    32
  0
VERTEX
  8
AM_VIS
  5
797
 10
12.2026
 20
5.57329
 30
0.000000
  70
    32
  0
VERTEX
  8
AM_VIS
  5
798
 10
12.2027
 20
5.57298
 30
0.000000
  70
    32
  0
VERTEX
  8
AM_VIS
  5
799
 10
12.2027
 20
5.57267
 30
0.000000
  70
    32
  0
VERTEX
  8
AM_VIS
  5
79A
 10
12.2028
 20
5.57236
 30
0.000000
  70
    32
  0
VERTEX
  8
AM_VIS
  5
79B
 10
12.2029
 20
5.57205
 30
0.000000
  70
    32
  0
VERTEX
  8
AM_VIS
  5
79C
 10
12.2030
 20
5.57174
 30
0.000000
  70
    32
  0
VERTEX
  8
AM_VIS
  5
79D
 10
12.2031
 20
5.57143
 30
0.000000
  70
    32
  0
VERTEX
  8
AM_VIS
  5
79E
 10
12.2032
 20
5.57111
 30
0.000000
  70
    32
  0
VERTEX
  8
AM_VIS
  5
79F
 10
12.2033
 20
5.57080
 30
0.000000
  70
    32
  0
VERTEX
  8
AM_VIS
  5
7A0
 10
12.2034
 20
5.57048
 30
0.000000
  70
    32
  0
VERTEX
  8
AM_VIS
  5
7A1
 10
12.2035
 20
5.57017
 30
0.000000
  70
    32
  0
VERTEX
  8
AM_VIS
  5
7A2
 10
12.2036
 20
5.56985
 30
0.000000
  70
    32
  0
VERTEX
  8
AM_VIS
  5
7A3
 10
12.2037
 20
5.56953
 30
0.000000
  70
    32
  0
VERTEX
  8
AM_VIS
  5
7A4
 10
12.2038
 20
5.56922
 30
0.000000
  70
    32
  0
VERTEX
  8
AM_VIS
  5
7A5
 10
12.2039
 20
5.56890
 30
0.000000
  70
    32
  0
VERTEX
  8
AM_VIS
  5
7A6
 10
12.2040
 20
5.56858
 30
0.000000
  70
    32
  0
VERTEX
  8
AM_VIS
  5
7A7
 10
12.2041
 20
5.56826
 30
0.000000
  70
    32
  0
VERTEX
  8
AM_VIS
  5
7A8
 10
12.2042
 20
5.56794
 30
0.000000
  70
    32
  0
VERTEX
  8
AM_VIS
  5
7A9
 10
12.2043
 20
5.56762
 30
0.000000
  70
    32
  0
VERTEX
  8
AM_VIS
  5
7AA
 10
12.2044
 20
5.56730
 30
0.000000
  70
    32
  0
VERTEX
  8
AM_VIS
  5
7AB
 10
12.2045
 20
5.56698
 30
0.000000
  70
    32
  0
VERTEX
  8
AM_VIS
  5
7AC
 10
12.2046
 20
5.56666
 30
0.000000
  70
    32
  0
VERTEX
  8
AM_VIS
  5
7AD
 10
12.2047
 20
5.56634
 30
0.000000
  70
    32
  0
VERTEX
  8
AM_VIS
  5
7AE
 10
12.2048
 20
5.56601
 30
0.000000
  70
    32
  0
VERTEX
  8
AM_VIS
  5
7AF
 10
12.2049
 20
5.56569
 30
0.000000
  70
    32
  0
VERTEX
  8
AM_VIS
  5
7B0
 10
12.2050
 20
5.56536
 30
0.000000
  70
    32
  0
VERTEX
  8
AM_VIS
  5
7B1
 10
12.2051
 20
5.56504
 30
0.000000
  70
    32
  0
VERTEX
  8
AM_VIS
  5
7B2
 10
12.2052
 20
5.56471
 30
0.000000
  70
    32
  0
VERTEX
  8
AM_VIS
  5
7B3
 10
12.2053
 20
5.56439
 30
0.000000
  70
    32
  0
VERTEX
  8
AM_VIS
  5
7B4
 10
12.2054
 20
5.56406
 30
0.000000
  70
    32
  0
VERTEX
  8
AM_VIS
  5
7B5
 10
12.2055
 20
5.56373
 30
0.000000
  70
    32
  0
VERTEX
  8
AM_VIS
  5
7B6
 10
12.2057
 20
5.56340
 30
0.000000
  70
    32
  0
VERTEX
  8
AM_VIS
  5
7B7
 10
12.2058
 20
5.56308
 30
0.000000
  70
    32
  0
VERTEX
  8
AM_VIS
  5
7B8
 10
12.2059
 20
5.56275
 30
0.000000
  70
    32
  0
VERTEX
  8
AM_VIS
  5
7B9
 10
12.2060
 20
5.56242
 30
0.000000
  70
    32
  0
VERTEX
  8
AM_VIS
  5
7BA
 10
12.2061
 20
5.56209
 30
0.000000
  70
    32
  0
VERTEX
  8
AM_VIS
  5
7BB
 10
12.2062
 20
5.56175
 30
0.000000
  70
    32
  0
VERTEX
  8
AM_VIS
  5
7BC
 10
12.2063
 20
5.56142
 30
0.000000
  70
    32
  0
VERTEX
  8
AM_VIS
  5
7BD
 10
12.2065
 20
5.56109
 30
0.000000
  70
    32
  0
VERTEX
  8
AM_VIS
  5
7BE
 10
12.2066
 20
5.56076
 30
0.000000
  70
    32
  0
VERTEX
  8
AM_VIS
  5
7BF
 10
12.2067
 20
5.56042
 30
0.000000
  70
    32
  0
VERTEX
  8
AM_VIS
  5
7C0
 10
12.2068
 20
5.56009
 30
0.000000
  70
    32
  0
VERTEX
  8
AM_VIS
  5
7C1
 10
12.2069
 20
5.55975
 30
0.000000
  70
    32
  0
VERTEX
  8
AM_VIS
  5
7C2
 10
12.2071
 20
5.55942
 30
0.000000
  70
    32
  0
VERTEX
  8
AM_VIS
  5
7C3
 10
12.2072
 20
5.55908
 30
0.000000
  70
    32
  0
VERTEX
  8
AM_VIS
  5
7C4
 10
12.2073
 20
5.55875
 30
0.000000
  70
    32
  0
VERTEX
  8
AM_VIS
  5
7C5
 10
12.2074
 20
5.55841
 30
0.000000
  70
    32
  0
VERTEX
  8
AM_VIS
  5
7C6
 10
12.2076
 20
5.55807
 30
0.000000
  70
    32
  0
VERTEX
  8
AM_VIS
  5
7C7
 10
12.2077
 20
5.55773
 30
0.000000
  70
    32
  0
VERTEX
  8
AM_VIS
  5
7C8
 10
12.2078
 20
5.55739
 30
0.000000
  70
    32
  0
VERTEX
  8
AM_VIS
  5
7C9
 10
12.2079
 20
5.55705
 30
0.000000
  70
    32
  0
VERTEX
  8
AM_VIS
  5
7CA
 10
12.2081
 20
5.55671
 30
0.000000
  70
    32
  0
VERTEX
  8
AM_VIS
  5
7CB
 10
12.2082
 20
5.55637
 30
0.000000
  70
    32
  0
VERTEX
  8
AM_VIS
  5
7CC
 10
12.2083
 20
5.55603
 30
0.000000
  70
    32
  0
VERTEX
  8
AM_VIS
  5
7CD
 10
12.2085
 20
5.55568
 30
0.000000
  70
    32
  0
VERTEX
  8
AM_VIS
  5
7CE
 10
12.2086
 20
5.55534
 30
0.000000
  70
    32
  0
VERTEX
  8
AM_VIS
  5
7CF
 10
12.2087
 20
5.55500
 30
0.000000
  70
    32
  0
VERTEX
  8
AM_VIS
  5
7D0
 10
12.2089
 20
5.55465
 30
0.000000
  70
    32
  0
VERTEX
  8
AM_VIS
  5
7D1
 10
12.2090
 20
5.55431
 30
0.000000
  70
    32
  0
VERTEX
  8
AM_VIS
  5
7D2
 10
12.2091
 20
5.55396
 30
0.000000
  70
    32
  0
VERTEX
  8
AM_VIS
  5
7D3
 10
12.2093
 20
5.55361
 30
0.000000
  70
    32
  0
VERTEX
  8
AM_VIS
  5
7D4
 10
12.2094
 20
5.55327
 30
0.000000
  70
    32
  0
VERTEX
  8
AM_VIS
  5
7D5
 10
12.2095
 20
5.55292
 30
0.000000
  70
    32
  0
VERTEX
  8
AM_VIS
  5
7D6
 10
12.2097
 20
5.55257
 30
0.000000
  70
    32
  0
VERTEX
  8
AM_VIS
  5
7D7
 10
12.2098
 20
5.55222
 30
0.000000
  70
    32
  0
VERTEX
  8
AM_VIS
  5
7D8
 10
12.2099
 20
5.55187
 30
0.000000
  70
    32
  0
VERTEX
  8
AM_VIS
  5
7D9
 10
12.2101
 20
5.55152
 30
0.000000
  70
    32
  0
VERTEX
  8
AM_VIS
  5
7DA
 10
12.2102
 20
5.55117
 30
0.000000
  70
    32
  0
VERTEX
  8
AM_VIS
  5
7DB
 10
12.2104
 20
5.55082
 30
0.000000
  70
    32
  0
VERTEX
  8
AM_VIS
  5
7DC
 10
12.2105
 20
5.55047
 30
0.000000
  70
    32
  0
VERTEX
  8
AM_VIS
  5
7DD
 10
12.2107
 20
5.55011
 30
0.000000
  70
    32
  0
VERTEX
  8
AM_VIS
  5
7DE
 10
12.2108
 20
5.54976
 30
0.000000
  70
    32
  0
VERTEX
  8
AM_VIS
  5
7DF
 10
12.2109
 20
5.54940
 30
0.000000
  70
    32
  0
VERTEX
  8
AM_VIS
  5
7E0
 10
12.2111
 20
5.54905
 30
0.000000
  70
    32
  0
VERTEX
  8
AM_VIS
  5
7E1
 10
12.2112
 20
5.54869
 30
0.000000
  70
    32
  0
VERTEX
  8
AM_VIS
  5
7E2
 10
12.2114
 20
5.54834
 30
0.000000
  70
    32
  0
VERTEX
  8
AM_VIS
  5
7E3
 10
12.2115
 20
5.54798
 30
0.000000
  70
    32
  0
VERTEX
  8
AM_VIS
  5
7E4
 10
12.2117
 20
5.54762
 30
0.000000
  70
    32
  0
VERTEX
  8
AM_VIS
  5
7E5
 10
12.2118
 20
5.54726
 30
0.000000
  70
    32
  0
VERTEX
  8
AM_VIS
  5
7E6
 10
12.2120
 20
5.54690
 30
0.000000
  70
    32
  0
VERTEX
  8
AM_VIS
  5
7E7
 10
12.2121
 20
5.54654
 30
0.000000
  70
    32
  0
VERTEX
  8
AM_VIS
  5
7E8
 10
12.2123
 20
5.54618
 30
0.000000
  70
    32
  0
VERTEX
  8
AM_VIS
  5
7E9
 10
12.2124
 20
5.54582
 30
0.000000
  70
    32
  0
VERTEX
  8
AM_VIS
  5
7EA
 10
12.2126
 20
5.54546
 30
0.000000
  70
    32
  0
VERTEX
  8
AM_VIS
  5
7EB
 10
12.2127
 20
5.54510
 30
0.000000
  70
    32
  0
VERTEX
  8
AM_VIS
  5
7EC
 10
12.2129
 20
5.54473
 30
0.000000
  70
    32
  0
VERTEX
  8
AM_VIS
  5
7ED
 10
12.2130
 20
5.54437
 30
0.000000
  70
    32
  0
VERTEX
  8
AM_VIS
  5
7EE
 10
12.2132
 20
5.54400
 30
0.000000
  70
    32
  0
VERTEX
  8
AM_VIS
  5
7EF
 10
12.2134
 20
5.54364
 30
0.000000
  70
    32
  0
VERTEX
  8
AM_VIS
  5
7F0
 10
12.2135
 20
5.54327
 30
0.000000
  70
    32
  0
VERTEX
  8
AM_VIS
  5
7F1
 10
12.2137
 20
5.54291
 30
0.000000
  70
    32
  0
VERTEX
  8
AM_VIS
  5
7F2
 10
12.2138
 20
5.54254
 30
0.000000
  70
    32
  0
VERTEX
  8
AM_VIS
  5
7F3
 10
12.2140
 20
5.54217
 30
0.000000
  70
    32
  0
VERTEX
  8
AM_VIS
  5
7F4
 10
12.2142
 20
5.54180
 30
0.000000
  70
    32
  0
VERTEX
  8
AM_VIS
  5
7F5
 10
12.2143
 20
5.54143
 30
0.000000
  70
    32
  0
VERTEX
  8
AM_VIS
  5
7F6
 10
12.2145
 20
5.54106
 30
0.000000
  70
    32
  0
VERTEX
  8
AM_VIS
  5
7F7
 10
12.2146
 20
5.54069
 30
0.000000
  70
    32
  0
VERTEX
  8
AM_VIS
  5
7F8
 10
12.2148
 20
5.54032
 30
0.000000
  70
    32
  0
VERTEX
  8
AM_VIS
  5
7F9
 10
12.2150
 20
5.53994
 30
0.000000
  70
    32
  0
VERTEX
  8
AM_VIS
  5
7FA
 10
12.2151
 20
5.53957
 30
0.000000
  70
    32
  0
VERTEX
  8
AM_VIS
  5
7FB
 10
12.2153
 20
5.53920
 30
0.000000
  70
    32
  0
VERTEX
  8
AM_VIS
  5
7FC
 10
12.2155
 20
5.53882
 30
0.000000
  70
    32
  0
VERTEX
  8
AM_VIS
  5
7FD
 10
12.2156
 20
5.53845
 30
0.000000
  70
    32
  0
VERTEX
  8
AM_VIS
  5
7FE
 10
12.2158
 20
5.53807
 30
0.000000
  70
    32
  0
VERTEX
  8
AM_VIS
  5
7FF
 10
12.2160
 20
5.53770
 30
0.000000
  70
    32
  0
VERTEX
  8
AM_VIS
  5
800
 10
12.2161
 20
5.53732
 30
0.000000
  70
    32
  0
VERTEX
  8
AM_VIS
  5
801
 10
12.2163
 20
5.53694
 30
0.000000
  70
    32
  0
VERTEX
  8
AM_VIS
  5
802
 10
12.2165
 20
5.53656
 30
0.000000
  70
    32
  0
VERTEX
  8
AM_VIS
  5
803
 10
12.2166
 20
5.53618
 30
0.000000
  70
    32
  0
VERTEX
  8
AM_VIS
  5
804
 10
12.2168
 20
5.53580
 30
0.000000
  70
    32
  0
VERTEX
  8
AM_VIS
  5
805
 10
12.2170
 20
5.53542
 30
0.000000
  70
    32
  0
VERTEX
  8
AM_VIS
  5
806
 10
12.2172
 20
5.53504
 30
0.000000
  70
    32
  0
VERTEX
  8
AM_VIS
  5
807
 10
12.2173
 20
5.53466
 30
0.000000
  70
    32
  0
VERTEX
  8
AM_VIS
  5
808
 10
12.2175
 20
5.53427
 30
0.000000
  70
    32
  0
VERTEX
  8
AM_VIS
  5
809
 10
12.2177
 20
5.53389
 30
0.000000
  70
    32
  0
VERTEX
  8
AM_VIS
  5
80A
 10
12.2179
 20
5.53350
 30
0.000000
  70
    32
  0
VERTEX
  8
AM_VIS
  5
80B
 10
12.2180
 20
5.53312
 30
0.000000
  70
    32
  0
VERTEX
  8
AM_VIS
  5
80C
 10
12.2182
 20
5.53273
 30
0.000000
  70
    32
  0
VERTEX
  8
AM_VIS
  5
80D
 10
12.2184
 20
5.53234
 30
0.000000
  70
    32
  0
VERTEX
  8
AM_VIS
  5
80E
 10
12.2186
 20
5.53196
 30
0.000000
  70
    32
  0
VERTEX
  8
AM_VIS
  5
80F
 10
12.2187
 20
5.53157
 30
0.000000
  70
    32
  0
VERTEX
  8
AM_VIS
  5
810
 10
12.2189
 20
5.53118
 30
0.000000
  70
    32
  0
VERTEX
  8
AM_VIS
  5
811
 10
12.2191
 20
5.53079
 30
0.000000
  70
    32
  0
VERTEX
  8
AM_VIS
  5
812
 10
12.2193
 20
5.53040
 30
0.000000
  70
    32
  0
VERTEX
  8
AM_VIS
  5
813
 10
12.2195
 20
5.53001
 30
0.000000
  70
    32
  0
VERTEX
  8
AM_VIS
  5
814
 10
12.2197
 20
5.52962
 30
0.000000
  70
    32
  0
VERTEX
  8
AM_VIS
  5
815
 10
12.2198
 20
5.52922
 30
0.000000
  70
    32
  0
VERTEX
  8
AM_VIS
  5
816
 10
12.2200
 20
5.52883
 30
0.000000
  70
    32
  0
VERTEX
  8
AM_VIS
  5
817
 10
12.2202
 20
5.52843
 30
0.000000
  70
    32
  0
VERTEX
  8
AM_VIS
  5
818
 10
12.2204
 20
5.52804
 30
0.000000
  70
    32
  0
VERTEX
  8
AM_VIS
  5
819
 10
12.2206
 20
5.52764
 30
0.000000
  70
    32
  0
VERTEX
  8
AM_VIS
  5
81A
 10
12.2208
 20
5.52725
 30
0.000000
  70
    32
  0
VERTEX
  8
AM_VIS
  5
81B
 10
12.2210
 20
5.52685
 30
0.000000
  70
    32
  0
VERTEX
  8
AM_VIS
  5
81C
 10
12.2211
 20
5.52645
 30
0.000000
  70
    32
  0
VERTEX
  8
AM_VIS
  5
81D
 10
12.2213
 20
5.52605
 30
0.000000
  70
    32
  0
VERTEX
  8
AM_VIS
  5
81E
 10
12.2215
 20
5.52565
 30
0.000000
  70
    32
  0
VERTEX
  8
AM_VIS
  5
81F
 10
12.2217
 20
5.52525
 30
0.000000
  70
    32
  0
VERTEX
  8
AM_VIS
  5
820
 10
12.2219
 20
5.52485
 30
0.000000
  70
    32
  0
VERTEX
  8
AM_VIS
  5
821
 10
12.2221
 20
5.52445
 30
0.000000
  70
    32
  0
VERTEX
  8
AM_VIS
  5
822
 10
12.2223
 20
5.52405
 30
0.000000
  70
    32
  0
VERTEX
  8
AM_VIS
  5
823
 10
12.2225
 20
5.52364
 30
0.000000
  70
    32
  0
VERTEX
  8
AM_VIS
  5
824
 10
12.2227
 20
5.52324
 30
0.000000
  70
    32
  0
VERTEX
  8
AM_VIS
  5
825
 10
12.2229
 20
5.52284
 30
0.000000
  70
    32
  0
VERTEX
  8
AM_VIS
  5
826
 10
12.2231
 20
5.52243
 30
0.000000
  70
    32
  0
VERTEX
  8
AM_VIS
  5
827
 10
12.2233
 20
5.52202
 30
0.000000
  70
    32
  0
VERTEX
  8
AM_VIS
  5
828
 10
12.2235
 20
5.52162
 30
0.000000
  70
    32
  0
VERTEX
  8
AM_VIS
  5
829
 10
12.2237
 20
5.52121
 30
0.000000
  70
    32
  0
VERTEX
  8
AM_VIS
  5
82A
 10
12.2239
 20
5.52080
 30
0.000000
  70
    32
  0
VERTEX
  8
AM_VIS
  5
82B
 10
12.2240
 20
5.52039
 30
0.000000
  70
    32
  0
VERTEX
  8
AM_VIS
  5
82C
 10
12.2242
 20
5.51998
 30
0.000000
  70
    32
  0
VERTEX
  8
AM_VIS
  5
82D
 10
12.2244
 20
5.51957
 30
0.000000
  70
    32
  0
VERTEX
  8
AM_VIS
  5
82E
 10
12.2246
 20
5.51916
 30
0.000000
  70
    32
  0
VERTEX
  8
AM_VIS
  5
82F
 10
12.2248
 20
5.51874
 30
0.000000
  70
    32
  0
VERTEX
  8
AM_VIS
  5
830
 10
12.2251
 20
5.51833
 30
0.000000
  70
    32
  0
VERTEX
  8
AM_VIS
  5
831
 10
12.2253
 20
5.51792
 30
0.000000
  70
    32
  0
VERTEX
  8
AM_VIS
  5
832
 10
12.2255
 20
5.51750
 30
0.000000
  70
    32
  0
VERTEX
  8
AM_VIS
  5
833
 10
12.2257
 20
5.51709
 30
0.000000
  70
    32
  0
VERTEX
  8
AM_VIS
  5
834
 10
12.2259
 20
5.51667
 30
0.000000
  70
    32
  0
VERTEX
  8
AM_VIS
  5
835
 10
12.2261
 20
5.51625
 30
0.000000
  70
    32
  0
VERTEX
  8
AM_VIS
  5
836
 10
12.2263
 20
5.51583
 30
0.000000
  70
    32
  0
VERTEX
  8
AM_VIS
  5
837
 10
12.2265
 20
5.51541
 30
0.000000
  70
    32
  0
VERTEX
  8
AM_VIS
  5
838
 10
12.2267
 20
5.51500
 30
0.000000
  70
    32
  0
VERTEX
  8
AM_VIS
  5
839
 10
12.2269
 20
5.51457
 30
0.000000
  70
    32
  0
VERTEX
  8
AM_VIS
  5
83A
 10
12.2271
 20
5.51415
 30
0.000000
  70
    32
  0
VERTEX
  8
AM_VIS
  5
83B
 10
12.2273
 20
5.51373
 30
0.000000
  70
    32
  0
VERTEX
  8
AM_VIS
  5
83C
 10
12.2275
 20
5.51331
 30
0.000000
  70
    32
  0
VERTEX
  8
AM_VIS
  5
83D
 10
12.2277
 20
5.51288
 30
0.000000
  70
    32
  0
VERTEX
  8
AM_VIS
  5
83E
 10
12.2279
 20
5.51246
 30
0.000000
  70
    32
  0
VERTEX
  8
AM_VIS
  5
83F
 10
12.2282
 20
5.51204
 30
0.000000
  70
    32
  0
VERTEX
  8
AM_VIS
  5
840
 10
12.2284
 20
5.51161
 30
0.000000
  70
    32
  0
VERTEX
  8
AM_VIS
  5
841
 10
12.2286
 20
5.51118
 30
0.000000
  70
    32
  0
VERTEX
  8
AM_VIS
  5
842
 10
12.2288
 20
5.51076
 30
0.000000
  70
    32
  0
VERTEX
  8
AM_VIS
  5
843
 10
12.2290
 20
5.51033
 30
0.000000
  70
    32
  0
VERTEX
  8
AM_VIS
  5
844
 10
12.2292
 20
5.50990
 30
0.000000
  70
    32
  0
VERTEX
  8
AM_VIS
  5
845
 10
12.2294
 20
5.50947
 30
0.000000
  70
    32
  0
VERTEX
  8
AM_VIS
  5
846
 10
12.2296
 20
5.50904
 30
0.000000
  70
    32
  0
VERTEX
  8
AM_VIS
  5
847
 10
12.2299
 20
5.50861
 30
0.000000
  70
    32
  0
VERTEX
  8
AM_VIS
  5
848
 10
12.2301
 20
5.50818
 30
0.000000
  70
    32
  0
VERTEX
  8
AM_VIS
  5
849
 10
12.2303
 20
5.50774
 30
0.000000
  70
    32
  0
VERTEX
  8
AM_VIS
  5
84A
 10
12.2305
 20
5.50731
 30
0.000000
  70
    32
  0
VERTEX
  8
AM_VIS
  5
84B
 10
12.2307
 20
5.50688
 30
0.000000
  70
    32
  0
VERTEX
  8
AM_VIS
  5
84C
 10
12.2309
 20
5.50644
 30
0.000000
  70
    32
  0
VERTEX
  8
AM_VIS
  5
84D
 10
12.2312
 20
5.50601
 30
0.000000
  70
    32
  0
VERTEX
  8
AM_VIS
  5
84E
 10
12.2314
 20
5.50557
 30
0.000000
  70
    32
  0
VERTEX
  8
AM_VIS
  5
84F
 10
12.2316
 20
5.50513
 30
0.000000
  70
    32
  0
VERTEX
  8
AM_VIS
  5
850
 10
12.2318
 20
5.50469
 30
0.000000
  70
    32
  0
VERTEX
  8
AM_VIS
  5
851
 10
12.2320
 20
5.50426
 30
0.000000
  70
    32
  0
VERTEX
  8
AM_VIS
  5
852
 10
12.2323
 20
5.50382
 30
0.000000
  70
    32
  0
VERTEX
  8
AM_VIS
  5
853
 10
12.2325
 20
5.50338
 30
0.000000
  70
    32
  0
VERTEX
  8
AM_VIS
  5
854
 10
12.2327
 20
5.50294
 30
0.000000
  70
    32
  0
VERTEX
  8
AM_VIS
  5
855
 10
12.2329
 20
5.50250
 30
0.000000
  70
    32
  0
VERTEX
  8
AM_VIS
  5
856
 10
12.2332
 20
5.50205
 30
0.000000
  70
    32
  0
VERTEX
  8
AM_VIS
  5
857
 10
12.2334
 20
5.50161
 30
0.000000
  70
    32
  0
VERTEX
  8
AM_VIS
  5
858
 10
12.2336
 20
5.50117
 30
0.000000
  70
    32
  0
VERTEX
  8
AM_VIS
  5
859
 10
12.2338
 20
5.50072
 30
0.000000
  70
    32
  0
VERTEX
  8
AM_VIS
  5
85A
 10
12.2341
 20
5.50028
 30
0.000000
  70
    32
  0
VERTEX
  8
AM_VIS
  5
85B
 10
12.2343
 20
5.49983
 30
0.000000
  70
    32
  0
VERTEX
  8
AM_VIS
  5
85C
 10
12.2345
 20
5.49939
 30
0.000000
  70
    32
  0
VERTEX
  8
AM_VIS
  5
85D
 10
12.2347
 20
5.49894
 30
0.000000
  70
    32
  0
VERTEX
  8
AM_VIS
  5
85E
 10
12.2350
 20
5.49849
 30
0.000000
  70
    32
  0
VERTEX
  8
AM_VIS
  5
85F
 10
12.2352
 20
5.49804
 30
0.000000
  70
    32
  0
VERTEX
  8
AM_VIS
  5
860
 10
12.2354
 20
5.49759
 30
0.000000
  70
    32
  0
VERTEX
  8
AM_VIS
  5
861
 10
12.2357
 20
5.49714
 30
0.000000
  70
    32
  0
VERTEX
  8
AM_VIS
  5
862
 10
12.2359
 20
5.49669
 30
0.000000
  70
    32
  0
VERTEX
  8
AM_VIS
  5
863
 10
12.2361
 20
5.49624
 30
0.000000
  70
    32
  0
VERTEX
  8
AM_VIS
  5
864
 10
12.2363
 20
5.49579
 30
0.000000
  70
    32
  0
VERTEX
  8
AM_VIS
  5
865
 10
12.2366
 20
5.49534
 30
0.000000
  70
    32
  0
VERTEX
  8
AM_VIS
  5
866
 10
12.2368
 20
5.49488
 30
0.000000
  70
    32
  0
VERTEX
  8
AM_VIS
  5
867
 10
12.2370
 20
5.49443
 30
0.000000
  70
    32
  0
VERTEX
  8
AM_VIS
  5
868
 10
12.2373
 20
5.49397
 30
0.000000
  70
    32
  0
VERTEX
  8
AM_VIS
  5
869
 10
12.2375
 20
5.49352
 30
0.000000
  70
    32
  0
VERTEX
  8
AM_VIS
  5
86A
 10
12.2377
 20
5.49306
 30
0.000000
  70
    32
  0
VERTEX
  8
AM_VIS
  5
86B
 10
12.2380
 20
5.49260
 30
0.000000
  70
    32
  0
VERTEX
  8
AM_VIS
  5
86C
 10
12.2382
 20
5.49215
 30
0.000000
  70
    32
  0
VERTEX
  8
AM_VIS
  5
86D
 10
12.2384
 20
5.49169
 30
0.000000
  70
    32
  0
VERTEX
  8
AM_VIS
  5
86E
 10
12.2387
 20
5.49123
 30
0.000000
  70
    32
  0
VERTEX
  8
AM_VIS
  5
86F
 10
12.2389
 20
5.49077
 30
0.000000
  70
    32
  0
VERTEX
  8
AM_VIS
  5
870
 10
12.2392
 20
5.49031
 30
0.000000
  70
    32
  0
VERTEX
  8
AM_VIS
  5
871
 10
12.2394
 20
5.48985
 30
0.000000
  70
    32
  0
VERTEX
  8
AM_VIS
  5
872
 10
12.2396
 20
5.48938
 30
0.000000
  70
    32
  0
VERTEX
  8
AM_VIS
  5
873
 10
12.2399
 20
5.48892
 30
0.000000
  70
    32
  0
VERTEX
  8
AM_VIS
  5
874
 10
12.2401
 20
5.48846
 30
0.000000
  70
    32
  0
VERTEX
  8
AM_VIS
  5
875
 10
12.2403
 20
5.48799
 30
0.000000
  70
    32
  0
VERTEX
  8
AM_VIS
  5
876
 10
12.2406
 20
5.48753
 30
0.000000
  70
    32
  0
VERTEX
  8
AM_VIS
  5
877
 10
12.2408
 20
5.48706
 30
0.000000
  70
    32
  0
VERTEX
  8
AM_VIS
  5
878
 10
12.2411
 20
5.48660
 30
0.000000
  70
    32
  0
VERTEX
  8
AM_VIS
  5
879
 10
12.2413
 20
5.48613
 30
0.000000
  70
    32
  0
VERTEX
  8
AM_VIS
  5
87A
 10
12.2415
 20
5.48566
 30
0.000000
  70
    32
  0
VERTEX
  8
AM_VIS
  5
87B
 10
12.2418
 20
5.48519
 30
0.000000
  70
    32
  0
VERTEX
  8
AM_VIS
  5
87C
 10
12.2420
 20
5.48472
 30
0.000000
  70
    32
  0
VERTEX
  8
AM_VIS
  5
87D
 10
12.2423
 20
5.48425
 30
0.000000
  70
    32
  0
VERTEX
  8
AM_VIS
  5
87E
 10
12.2425
 20
5.48378
 30
0.000000
  70
    32
  0
VERTEX
  8
AM_VIS
  5
87F
 10
12.2428
 20
5.48331
 30
0.000000
  70
    32
  0
VERTEX
  8
AM_VIS
  5
880
 10
12.2430
 20
5.48284
 30
0.000000
  70
    32
  0
VERTEX
  8
AM_VIS
  5
881
 10
12.2432
 20
5.48237
 30
0.000000
  70
    32
  0
VERTEX
  8
AM_VIS
  5
882
 10
12.2435
 20
5.48189
 30
0.000000
  70
    32
  0
VERTEX
  8
AM_VIS
  5
883
 10
12.2437
 20
5.48142
 30
0.000000
  70
    32
  0
VERTEX
  8
AM_VIS
  5
884
 10
12.2440
 20
5.48095
 30
0.000000
  70
    32
  0
VERTEX
  8
AM_VIS
  5
885
 10
12.2442
 20
5.48047
 30
0.000000
  70
    32
  0
VERTEX
  8
AM_VIS
  5
886
 10
12.2445
 20
5.47999
 30
0.000000
  70
    32
  0
VERTEX
  8
AM_VIS
  5
887
 10
12.2447
 20
5.47952
 30
0.000000
  70
    32
  0
VERTEX
  8
AM_VIS
  5
888
 10
12.2450
 20
5.47904
 30
0.000000
  70
    32
  0
VERTEX
  8
AM_VIS
  5
889
 10
12.2452
 20
5.47856
 30
0.000000
  70
    32
  0
VERTEX
  8
AM_VIS
  5
88A
 10
12.2454
 20
5.47808
 30
0.000000
  70
    32
  0
VERTEX
  8
AM_VIS
  5
88B
 10
12.2457
 20
5.47760
 30
0.000000
  70
    32
  0
VERTEX
  8
AM_VIS
  5
88C
 10
12.2459
 20
5.47712
 30
0.000000
  70
    32
  0
VERTEX
  8
AM_VIS
  5
88D
 10
12.2462
 20
5.47664
 30
0.000000
  70
    32
  0
VERTEX
  8
AM_VIS
  5
88E
 10
12.2464
 20
5.47616
 30
0.000000
  70
    32
  0
VERTEX
  8
AM_VIS
  5
88F
 10
12.2467
 20
5.47568
 30
0.000000
  70
    32
  0
VERTEX
  8
AM_VIS
  5
890
 10
12.2469
 20
5.47520
 30
0.000000
  70
    32
  0
VERTEX
  8
AM_VIS
  5
891
 10
12.2472
 20
5.47471
 30
0.000000
  70
    32
  0
VERTEX
  8
AM_VIS
  5
892
 10
12.2474
 20
5.47423
 30
0.000000
  70
    32
  0
VERTEX
  8
AM_VIS
  5
893
 10
12.2477
 20
5.47374
 30
0.000000
  70
    32
  0
VERTEX
  8
AM_VIS
  5
894
 10
12.2479
 20
5.47326
 30
0.000000
  70
    32
  0
VERTEX
  8
AM_VIS
  5
895
 10
12.2482
 20
5.47277
 30
0.000000
  70
    32
  0
VERTEX
  8
AM_VIS
  5
896
 10
12.2484
 20
5.47228
 30
0.000000
  70
    32
  0
VERTEX
  8
AM_VIS
  5
897
 10
12.2487
 20
5.47180
 30
0.000000
  70
    32
  0
VERTEX
  8
AM_VIS
  5
898
 10
12.2489
 20
5.47131
 30
0.000000
  70
    32
  0
VERTEX
  8
AM_VIS
  5
899
 10
12.2492
 20
5.47082
 30
0.000000
  70
    32
  0
VERTEX
  8
AM_VIS
  5
89A
 10
12.2494
 20
5.47033
 30
0.000000
  70
    32
  0
VERTEX
  8
AM_VIS
  5
89B
 10
12.2497
 20
5.46984
 30
0.000000
  70
    32
  0
VERTEX
  8
AM_VIS
  5
89C
 10
12.2499
 20
5.46935
 30
0.000000
  70
    32
  0
VERTEX
  8
AM_VIS
  5
89D
 10
12.2502
 20
5.46886
 30
0.000000
  70
    32
  0
VERTEX
  8
AM_VIS
  5
89E
 10
12.2505
 20
5.46836
 30
0.000000
  70
    32
  0
VERTEX
  8
AM_VIS
  5
89F
 10
12.2507
 20
5.46787
 30
0.000000
  70
    32
  0
VERTEX
  8
AM_VIS
  5
8A0
 10
12.2510
 20
5.46738
 30
0.000000
  70
    32
  0
VERTEX
  8
AM_VIS
  5
8A1
 10
12.2512
 20
5.46688
 30
0.000000
  70
    32
  0
VERTEX
  8
AM_VIS
  5
8A2
 10
12.2515
 20
5.46639
 30
0.000000
  70
    32
  0
VERTEX
  8
AM_VIS
  5
8A3
 10
12.2517
 20
5.46589
 30
0.000000
  70
    32
  0
VERTEX
  8
AM_VIS
  5
8A4
 10
12.2520
 20
5.46539
 30
0.000000
  70
    32
  0
VERTEX
  8
AM_VIS
  5
8A5
 10
12.2522
 20
5.46490
 30
0.000000
  70
    32
  0
VERTEX
  8
AM_VIS
  5
8A6
 10
12.2525
 20
5.46440
 30
0.000000
  70
    32
  0
VERTEX
  8
AM_VIS
  5
8A7
 10
12.2527
 20
5.46390
 30
0.000000
  70
    32
  0
VERTEX
  8
AM_VIS
  5
8A8
 10
12.2530
 20
5.46340
 30
0.000000
  70
    32
  0
VERTEX
  8
AM_VIS
  5
8A9
 10
12.2533
 20
5.46290
 30
0.000000
  70
    32
  0
VERTEX
  8
AM_VIS
  5
8AA
 10
12.2535
 20
5.46240
 30
0.000000
  70
    32
  0
VERTEX
  8
AM_VIS
  5
8AB
 10
12.2538
 20
5.46190
 30
0.000000
  70
    32
  0
VERTEX
  8
AM_VIS
  5
8AC
 10
12.2540
 20
5.46140
 30
0.000000
  70
    32
  0
VERTEX
  8
AM_VIS
  5
8AD
 10
12.2543
 20
5.46090
 30
0.000000
  70
    32
  0
VERTEX
  8
AM_VIS
  5
8AE
 10
12.2545
 20
5.46039
 30
0.000000
  70
    32
  0
VERTEX
  8
AM_VIS
  5
8AF
 10
12.2548
 20
5.45989
 30
0.000000
  70
    32
  0
VERTEX
  8
AM_VIS
  5
8B0
 10
12.2551
 20
5.45939
 30
0.000000
  70
    32
  0
VERTEX
  8
AM_VIS
  5
8B1
 10
12.2553
 20
5.45888
 30
0.000000
  70
    32
  0
VERTEX
  8
AM_VIS
  5
8B2
 10
12.2556
 20
5.45838
 30
0.000000
  70
    32
  0
VERTEX
  8
AM_VIS
  5
8B3
 10
12.2558
 20
5.45787
 30
0.000000
  70
    32
  0
VERTEX
  8
AM_VIS
  5
8B4
 10
12.2561
 20
5.45736
 30
0.000000
  70
    32
  0
VERTEX
  8
AM_VIS
  5
8B5
 10
12.2564
 20
5.45685
 30
0.000000
  70
    32
  0
VERTEX
  8
AM_VIS
  5
8B6
 10
12.2566
 20
5.45635
 30
0.000000
  70
    32
  0
VERTEX
  8
AM_VIS
  5
8B7
 10
12.2569
 20
5.45584
 30
0.000000
  70
    32
  0
VERTEX
  8
AM_VIS
  5
8B8
 10
12.2571
 20
5.45533
 30
0.000000
  70
    32
  0
VERTEX
  8
AM_VIS
  5
8B9
 10
12.2574
 20
5.45482
 30
0.000000
  70
    32
  0
VERTEX
  8
AM_VIS
  5
8BA
 10
12.2577
 20
5.45431
 30
0.000000
  70
    32
  0
VERTEX
  8
AM_VIS
  5
8BB
 10
12.2579
 20
5.45379
 30
0.000000
  70
    32
  0
VERTEX
  8
AM_VIS
  5
8BC
 10
12.2582
 20
5.45328
 30
0.000000
  70
    32
  0
VERTEX
  8
AM_VIS
  5
8BD
 10
12.2584
 20
5.45277
 30
0.000000
  70
    32
  0
VERTEX
  8
AM_VIS
  5
8BE
 10
12.2587
 20
5.45226
 30
0.000000
  70
    32
  0
VERTEX
  8
AM_VIS
  5
8BF
 10
12.2590
 20
5.45174
 30
0.000000
  70
    32
  0
VERTEX
  8
AM_VIS
  5
8C0
 10
12.2592
 20
5.45123
 30
0.000000
  70
    32
  0
VERTEX
  8
AM_VIS
  5
8C1
 10
12.2595
 20
5.45071
 30
0.000000
  70
    32
  0
VERTEX
  8
AM_VIS
  5
8C2
 10
12.2598
 20
5.45020
 30
0.000000
  70
    32
  0
VERTEX
  8
AM_VIS
  5
8C3
 10
12.2600
 20
5.44968
 30
0.000000
  70
    32
  0
VERTEX
  8
AM_VIS
  5
8C4
 10
12.2603
 20
5.44916
 30
0.000000
  70
    32
  0
VERTEX
  8
AM_VIS
  5
8C5
 10
12.2605
 20
5.44864
 30
0.000000
  70
    32
  0
VERTEX
  8
AM_VIS
  5
8C6
 10
12.2608
 20
5.44813
 30
0.000000
  70
    32
  0
VERTEX
  8
AM_VIS
  5
8C7
 10
12.2611
 20
5.44761
 30
0.000000
  70
    32
  0
VERTEX
  8
AM_VIS
  5
8C8
 10
12.2613
 20
5.44709
 30
0.000000
  70
    32
  0
VERTEX
  8
AM_VIS
  5
8C9
 10
12.2616
 20
5.44657
 30
0.000000
  70
    32
  0
VERTEX
  8
AM_VIS
  5
8CA
 10
12.2619
 20
5.44604
 30
0.000000
  70
    32
  0
VERTEX
  8
AM_VIS
  5
8CB
 10
12.2621
 20
5.44552
 30
0.000000
  70
    32
  0
VERTEX
  8
AM_VIS
  5
8CC
 10
12.2624
 20
5.44500
 30
0.000000
  70
    32
  0
VERTEX
  8
AM_VIS
  5
8CD
 10
12.2627
 20
5.44448
 30
0.000000
  70
    32
  0
VERTEX
  8
AM_VIS
  5
8CE
 10
12.2629
 20
5.44395
 30
0.000000
  70
    32
  0
VERTEX
  8
AM_VIS
  5
8CF
 10
12.2632
 20
5.44343
 30
0.000000
  70
    32
  0
VERTEX
  8
AM_VIS
  5
8D0
 10
12.2634
 20
5.44290
 30
0.000000
  70
    32
  0
VERTEX
  8
AM_VIS
  5
8D1
 10
12.2637
 20
5.44238
 30
0.000000
  70
    32
  0
VERTEX
  8
AM_VIS
  5
8D2
 10
12.2640
 20
5.44185
 30
0.000000
  70
    32
  0
VERTEX
  8
AM_VIS
  5
8D3
 10
12.2642
 20
5.44132
 30
0.000000
  70
    32
  0
VERTEX
  8
AM_VIS
  5
8D4
 10
12.2645
 20
5.44080
 30
0.000000
  70
    32
  0
VERTEX
  8
AM_VIS
  5
8D5
 10
12.2648
 20
5.44027
 30
0.000000
  70
    32
  0
VERTEX
  8
AM_VIS
  5
8D6
 10
12.2650
 20
5.43974
 30
0.000000
  70
    32
  0
VERTEX
  8
AM_VIS
  5
8D7
 10
12.2653
 20
5.43921
 30
0.000000
  70
    32
  0
VERTEX
  8
AM_VIS
  5
8D8
 10
12.2656
 20
5.43868
 30
0.000000
  70
    32
  0
VERTEX
  8
AM_VIS
  5
8D9
 10
12.2658
 20
5.43815
 30
0.000000
  70
    32
  0
VERTEX
  8
AM_VIS
  5
8DA
 10
12.2661
 20
5.43762
 30
0.000000
  70
    32
  0
VERTEX
  8
AM_VIS
  5
8DB
 10
12.2664
 20
5.43709
 30
0.000000
  70
    32
  0
VERTEX
  8
AM_VIS
  5
8DC
 10
12.2666
 20
5.43655
 30
0.000000
  70
    32
  0
VERTEX
  8
AM_VIS
  5
8DD
 10
12.2669
 20
5.43602
 30
0.000000
  70
    32
  0
VERTEX
  8
AM_VIS
  5
8DE
 10
12.2672
 20
5.43549
 30
0.000000
  70
    32
  0
VERTEX
  8
AM_VIS
  5
8DF
 10
12.2674
 20
5.43495
 30
0.000000
  70
    32
  0
VERTEX
  8
AM_VIS
  5
8E0
 10
12.2677
 20
5.43442
 30
0.000000
  70
    32
  0
VERTEX
  8
AM_VIS
  5
8E1
 10
12.2680
 20
5.43388
 30
0.000000
  70
    32
  0
VERTEX
  8
AM_VIS
  5
8E2
 10
12.2682
 20
5.43335
 30
0.000000
  70
    32
  0
VERTEX
  8
AM_VIS
  5
8E3
 10
12.2685
 20
5.43281
 30
0.000000
  70
    32
  0
VERTEX
  8
AM_VIS
  5
8E4
 10
12.2688
 20
5.43227
 30
0.000000
  70
    32
  0
VERTEX
  8
AM_VIS
  5
8E5
 10
12.2690
 20
5.43173
 30
0.000000
  70
    32
  0
VERTEX
  8
AM_VIS
  5
8E6
 10
12.2693
 20
5.43120
 30
0.000000
  70
    32
  0
VERTEX
  8
AM_VIS
  5
8E7
 10
12.2696
 20
5.43066
 30
0.000000
  70
    32
  0
VERTEX
  8
AM_VIS
  5
8E8
 10
12.2698
 20
5.43012
 30
0.000000
  70
    32
  0
VERTEX
  8
AM_VIS
  5
8E9
 10
12.2701
 20
5.42958
 30
0.000000
  70
    32
  0
VERTEX
  8
AM_VIS
  5
8EA
 10
12.2704
 20
5.42903
 30
0.000000
  70
    32
  0
VERTEX
  8
AM_VIS
  5
8EB
 10
12.2706
 20
5.42849
 30
0.000000
  70
    32
  0
VERTEX
  8
AM_VIS
  5
8EC
 10
12.2709
 20
5.42795
 30
0.000000
  70
    32
  0
VERTEX
  8
AM_VIS
  5
8ED
 10
12.2712
 20
5.42741
 30
0.000000
  70
    32
  0
VERTEX
  8
AM_VIS
  5
8EE
 10
12.2714
 20
5.42686
 30
0.000000
  70
    32
  0
VERTEX
  8
AM_VIS
  5
8EF
 10
12.2717
 20
5.42632
 30
0.000000
  70
    32
  0
VERTEX
  8
AM_VIS
  5
8F0
 10
12.2720
 20
5.42577
 30
0.000000
  70
    32
  0
VERTEX
  8
AM_VIS
  5
8F1
 10
12.2723
 20
5.42523
 30
0.000000
  70
    32
  0
VERTEX
  8
AM_VIS
  5
8F2
 10
12.2725
 20
5.42468
 30
0.000000
  70
    32
  0
VERTEX
  8
AM_VIS
  5
8F3
 10
12.2728
 20
5.42414
 30
0.000000
  70
    32
  0
VERTEX
  8
AM_VIS
  5
8F4
 10
12.2731
 20
5.42359
 30
0.000000
  70
    32
  0
VERTEX
  8
AM_VIS
  5
8F5
 10
12.2733
 20
5.42304
 30
0.000000
  70
    32
  0
VERTEX
  8
AM_VIS
  5
8F6
 10
12.2736
 20
5.42249
 30
0.000000
  70
    32
  0
VERTEX
  8
AM_VIS
  5
8F7
 10
12.2739
 20
5.42194
 30
0.000000
  70
    32
  0
VERTEX
  8
AM_VIS
  5
8F8
 10
12.2741
 20
5.42139
 30
0.000000
  70
    32
  0
VERTEX
  8
AM_VIS
  5
8F9
 10
12.2744
 20
5.42084
 30
0.000000
  70
    32
  0
VERTEX
  8
AM_VIS
  5
8FA
 10
12.2747
 20
5.42029
 30
0.000000
  70
    32
  0
VERTEX
  8
AM_VIS
  5
8FB
 10
12.2749
 20
5.41974
 30
0.000000
  70
    32
  0
VERTEX
  8
AM_VIS
  5
8FC
 10
12.2752
 20
5.41919
 30
0.000000
  70
    32
  0
VERTEX
  8
AM_VIS
  5
8FD
 10
12.2755
 20
5.41864
 30
0.000000
  70
    32
  0
VERTEX
  8
AM_VIS
  5
8FE
 10
12.2757
 20
5.41808
 30
0.000000
  70
    32
  0
VERTEX
  8
AM_VIS
  5
8FF
 10
12.2760
 20
5.41753
 30
0.000000
  70
    32
  0
VERTEX
  8
AM_VIS
  5
900
 10
12.2763
 20
5.41697
 30
0.000000
  70
    32
  0
VERTEX
  8
AM_VIS
  5
901
 10
12.2765
 20
5.41642
 30
0.000000
  70
    32
  0
VERTEX
  8
AM_VIS
  5
902
 10
12.2768
 20
5.41586
 30
0.000000
  70
    32
  0
VERTEX
  8
AM_VIS
  5
903
 10
12.2771
 20
5.41531
 30
0.000000
  70
    32
  0
VERTEX
  8
AM_VIS
  5
904
 10
12.2774
 20
5.41475
 30
0.000000
  70
    32
  0
VERTEX
  8
AM_VIS
  5
905
 10
12.2776
 20
5.41419
 30
0.000000
  70
    32
  0
VERTEX
  8
AM_VIS
  5
906
 10
12.2779
 20
5.41363
 30
0.000000
  70
    32
  0
VERTEX
  8
AM_VIS
  5
907
 10
12.2782
 20
5.41308
 30
0.000000
  70
    32
  0
VERTEX
  8
AM_VIS
  5
908
 10
12.2784
 20
5.41252
 30
0.000000
  70
    32
  0
VERTEX
  8
AM_VIS
  5
909
 10
12.2787
 20
5.41196
 30
0.000000
  70
    32
  0
VERTEX
  8
AM_VIS
  5
90A
 10
12.2790
 20
5.41140
 30
0.000000
  70
    32
  0
VERTEX
  8
AM_VIS
  5
90B
 10
12.2792
 20
5.41084
 30
0.000000
  70
    32
  0
VERTEX
  8
AM_VIS
  5
90C
 10
12.2795
 20
5.41027
 30
0.000000
  70
    32
  0
VERTEX
  8
AM_VIS
  5
90D
 10
12.2798
 20
5.40971
 30
0.000000
  70
    32
  0
VERTEX
  8
AM_VIS
  5
90E
 10
12.2800
 20
5.40915
 30
0.000000
  70
    32
  0
VERTEX
  8
AM_VIS
  5
90F
 10
12.2803
 20
5.40859
 30
0.000000
  70
    32
  0
VERTEX
  8
AM_VIS
  5
910
 10
12.2806
 20
5.40802
 30
0.000000
  70
    32
  0
VERTEX
  8
AM_VIS
  5
911
 10
12.2808
 20
5.40746
 30
0.000000
  70
    32
  0
VERTEX
  8
AM_VIS
  5
912
 10
12.2811
 20
5.40689
 30
0.000000
  70
    32
  0
VERTEX
  8
AM_VIS
  5
913
 10
12.2814
 20
5.40633
 30
0.000000
  70
    32
  0
VERTEX
  8
AM_VIS
  5
914
 10
12.2816
 20
5.40576
 30
0.000000
  70
    32
  0
VERTEX
  8
AM_VIS
  5
915
 10
12.2819
 20
5.40519
 30
0.000000
  70
    32
  0
VERTEX
  8
AM_VIS
  5
916
 10
12.2822
 20
5.40463
 30
0.000000
  70
    32
  0
VERTEX
  8
AM_VIS
  5
917
 10
12.2824
 20
5.40406
 30
0.000000
  70
    32
  0
VERTEX
  8
AM_VIS
  5
918
 10
12.2827
 20
5.40349
 30
0.000000
  70
    32
  0
VERTEX
  8
AM_VIS
  5
919
 10
12.2830
 20
5.40292
 30
0.000000
  70
    32
  0
VERTEX
  8
AM_VIS
  5
91A
 10
12.2832
 20
5.40236
 30
0.000000
  70
    32
  0
VERTEX
  8
AM_VIS
  5
91B
 10
12.2835
 20
5.40179
 30
0.000000
  70
    32
  0
VERTEX
  8
AM_VIS
  5
91C
 10
12.2838
 20
5.40122
 30
0.000000
  70
    32
  0
VERTEX
  8
AM_VIS
  5
91D
 10
12.2840
 20
5.40065
 30
0.000000
  70
    32
  0
VERTEX
  8
AM_VIS
  5
91E
 10
12.2843
 20
5.40008
 30
0.000000
  70
    32
  0
VERTEX
  8
AM_VIS
  5
91F
 10
12.2846
 20
5.39951
 30
0.000000
  70
    32
  0
VERTEX
  8
AM_VIS
  5
920
 10
12.2848
 20
5.39895
 30
0.000000
  70
    32
  0
VERTEX
  8
AM_VIS
  5
921
 10
12.2851
 20
5.39838
 30
0.000000
  70
    32
  0
VERTEX
  8
AM_VIS
  5
922
 10
12.2854
 20
5.39781
 30
0.000000
  70
    32
  0
VERTEX
  8
AM_VIS
  5
923
 10
12.2856
 20
5.39724
 30
0.000000
  70
    32
  0
VERTEX
  8
AM_VIS
  5
924
 10
12.2859
 20
5.39667
 30
0.000000
  70
    32
  0
VERTEX
  8
AM_VIS
  5
925
 10
12.2862
 20
5.39610
 30
0.000000
  70
    32
  0
VERTEX
  8
AM_VIS
  5
926
 10
12.2864
 20
5.39553
 30
0.000000
  70
    32
  0
VERTEX
  8
AM_VIS
  5
927
 10
12.2867
 20
5.39496
 30
0.000000
  70
    32
  0
VERTEX
  8
AM_VIS
  5
928
 10
12.2870
 20
5.39439
 30
0.000000
  70
    32
  0
VERTEX
  8
AM_VIS
  5
929
 10
12.2872
 20
5.39382
 30
0.000000
  70
    32
  0
VERTEX
  8
AM_VIS
  5
92A
 10
12.2875
 20
5.39325
 30
0.000000
  70
    32
  0
VERTEX
  8
AM_VIS
  5
92B
 10
12.2877
 20
5.39268
 30
0.000000
  70
    32
  0
VERTEX
  8
AM_VIS
  5
92C
 10
12.2880
 20
5.39211
 30
0.000000
  70
    32
  0
VERTEX
  8
AM_VIS
  5
92D
 10
12.2883
 20
5.39154
 30
0.000000
  70
    32
  0
VERTEX
  8
AM_VIS
  5
92E
 10
12.2885
 20
5.39097
 30
0.000000
  70
    32
  0
VERTEX
  8
AM_VIS
  5
92F
 10
12.2888
 20
5.39040
 30
0.000000
  70
    32
  0
VERTEX
  8
AM_VIS
  5
930
 10
12.2890
 20
5.38983
 30
0.000000
  70
    32
  0
VERTEX
  8
AM_VIS
  5
931
 10
12.2893
 20
5.38926
 30
0.000000
  70
    32
  0
VERTEX
  8
AM_VIS
  5
932
 10
12.2896
 20
5.38868
 30
0.000000
  70
    32
  0
VERTEX
  8
AM_VIS
  5
933
 10
12.2898
 20
5.38811
 30
0.000000
  70
    32
  0
VERTEX
  8
AM_VIS
  5
934
 10
12.2901
 20
5.38754
 30
0.000000
  70
    32
  0
VERTEX
  8
AM_VIS
  5
935
 10
12.2903
 20
5.38697
 30
0.000000
  70
    32
  0
VERTEX
  8
AM_VIS
  5
936
 10
12.2906
 20
5.38640
 30
0.000000
  70
    32
  0
VERTEX
  8
AM_VIS
  5
937
 10
12.2909
 20
5.38583
 30
0.000000
  70
    32
  0
VERTEX
  8
AM_VIS
  5
938
 10
12.2911
 20
5.38526
 30
0.000000
  70
    32
  0
VERTEX
  8
AM_VIS
  5
939
 10
12.2914
 20
5.38469
 30
0.000000
  70
    32
  0
VERTEX
  8
AM_VIS
  5
93A
 10
12.2916
 20
5.38412
 30
0.000000
  70
    32
  0
VERTEX
  8
AM_VIS
  5
93B
 10
12.2919
 20
5.38356
 30
0.000000
  70
    32
  0
VERTEX
  8
AM_VIS
  5
93C
 10
12.2921
 20
5.38299
 30
0.000000
  70
    32
  0
VERTEX
  8
AM_VIS
  5
93D
 10
12.2924
 20
5.38242
 30
0.000000
  70
    32
  0
VERTEX
  8
AM_VIS
  5
93E
 10
12.2926
 20
5.38185
 30
0.000000
  70
    32
  0
VERTEX
  8
AM_VIS
  5
93F
 10
12.2929
 20
5.38129
 30
0.000000
  70
    32
  0
VERTEX
  8
AM_VIS
  5
940
 10
12.2931
 20
5.38072
 30
0.000000
  70
    32
  0
VERTEX
  8
AM_VIS
  5
941
 10
12.2934
 20
5.38015
 30
0.000000
  70
    32
  0
VERTEX
  8
AM_VIS
  5
942
 10
12.2936
 20
5.37959
 30
0.000000
  70
    32
  0
VERTEX
  8
AM_VIS
  5
943
 10
12.2939
 20
5.37902
 30
0.000000
  70
    32
  0
VERTEX
  8
AM_VIS
  5
944
 10
12.2941
 20
5.37846
 30
0.000000
  70
    32
  0
VERTEX
  8
AM_VIS
  5
945
 10
12.2944
 20
5.37789
 30
0.000000
  70
    32
  0
VERTEX
  8
AM_VIS
  5
946
 10
12.2946
 20
5.37733
 30
0.000000
  70
    32
  0
VERTEX
  8
AM_VIS
  5
947
 10
12.2949
 20
5.37676
 30
0.000000
  70
    32
  0
VERTEX
  8
AM_VIS
  5
948
 10
12.2951
 20
5.37620
 30
0.000000
  70
    32
  0
VERTEX
  8
AM_VIS
  5
949
 10
12.2954
 20
5.37564
 30
0.000000
  70
    32
  0
VERTEX
  8
AM_VIS
  5
94A
 10
12.2956
 20
5.37507
 30
0.000000
  70
    32
  0
VERTEX
  8
AM_VIS
  5
94B
 10
12.2959
 20
5.37451
 30
0.000000
  70
    32
  0
VERTEX
  8
AM_VIS
  5
94C
 10
12.2961
 20
5.37395
 30
0.000000
  70
    32
  0
VERTEX
  8
AM_VIS
  5
94D
 10
12.2964
 20
5.37339
 30
0.000000
  70
    32
  0
VERTEX
  8
AM_VIS
  5
94E
 10
12.2966
 20
5.37283
 30
0.000000
  70
    32
  0
SEQEND
  8
AM_VIS
  5
94F
  0
ARC
  5
38
  8
AM_VIS
 10
11.958784270430771
 20
5.1399833362514187
 30
0.0
 40
0.3692967596140904
 50
49.29431560951781
 51
88.371789894220015
  0
ARC
  5
3A
  8
AM_VIS
 10
11.97976105152115
 20
5.1324061406155579
 30
0.0
 40
0.3692967596140921
 50
229.29431560951789
 51
268.37178989422
  0
ARC
  5
3B
  8
AM_VIS
 10
11.96927266097596
 20
5.1361947384334883
 30
0.0
 40
0.365625
 50
309.07230755918039
 51
50.927692440819641
  0
ARC
  5
3C
  8
AM_VIS
 10
11.97976105152115
 20
5.1399833362514178
 30
0.0
 40
0.3692967596140919
 50
91.628210105779985
 51
130.70568439048199
  0
ARC
  5
3D
  8
AM_VIS
 10
11.96927266097596
 20
5.1361947384334883
 30
0.0
 40
0.365625
 50
129.0723075591805
 51
230.9276924408195
  0
POLYLINE
  8
AM_VIS
  5
950
  66
     1
 10
0.000000
 20
0.000000
 30
0.000000
  70
     8
  0
VERTEX
  8
AM_VIS
  5
951
 10
13.1716
 20
4.55934
 30
0.000000
  70
    32
  0
VERTEX
  8
AM_VIS
  5
952
 10
13.1733
 20
4.56053
 30
0.000000
  70
    32
  0
VERTEX
  8
AM_VIS
  5
953
 10
13.1750
 20
4.56172
 30
0.000000
  70
    32
  0
VERTEX
  8
AM_VIS
  5
954
 10
13.1767
 20
4.56290
 30
0.000000
  70
    32
  0
VERTEX
  8
AM_VIS
  5
955
 10
13.1784
 20
4.56408
 30
0.000000
  70
    32
  0
VERTEX
  8
AM_VIS
  5
956
 10
13.1802
 20
4.56524
 30
0.000000
  70
    32
  0
VERTEX
  8
AM_VIS
  5
957
 10
13.1819
 20
4.56641
 30
0.000000
  70
    32
  0
VERTEX
  8
AM_VIS
  5
958
 10
13.1836
 20
4.56756
 30
0.000000
  70
    32
  0
VERTEX
  8
AM_VIS
  5
959
 10
13.1854
 20
4.56871
 30
0.000000
  70
    32
  0
VERTEX
  8
AM_VIS
  5
95A
 10
13.1871
 20
4.56985
 30
0.000000
  70
    32
  0
VERTEX
  8
AM_VIS
  5
95B
 10
13.1889
 20
4.57098
 30
0.000000
  70
    32
  0
VERTEX
  8
AM_VIS
  5
95C
 10
13.1906
 20
4.57211
 30
0.000000
  70
    32
  0
VERTEX
  8
AM_VIS
  5
95D
 10
13.1924
 20
4.57323
 30
0.000000
  70
    32
  0
VERTEX
  8
AM_VIS
  5
95E
 10
13.1942
 20
4.57434
 30
0.000000
  70
    32
  0
VERTEX
  8
AM_VIS
  5
95F
 10
13.1959
 20
4.57545
 30
0.000000
  70
    32
  0
VERTEX
  8
AM_VIS
  5
960
 10
13.1977
 20
4.57655
 30
0.000000
  70
    32
  0
VERTEX
  8
AM_VIS
  5
961
 10
13.1995
 20
4.57764
 30
0.000000
  70
    32
  0
VERTEX
  8
AM_VIS
  5
962
 10
13.2013
 20
4.57873
 30
0.000000
  70
    32
  0
VERTEX
  8
AM_VIS
  5
963
 10
13.2031
 20
4.57981
 30
0.000000
  70
    32
  0
VERTEX
  8
AM_VIS
  5
964
 10
13.2049
 20
4.58088
 30
0.000000
  70
    32
  0
VERTEX
  8
AM_VIS
  5
965
 10
13.2067
 20
4.58195
 30
0.000000
  70
    32
  0
VERTEX
  8
AM_VIS
  5
966
 10
13.2085
 20
4.58301
 30
0.000000
  70
    32
  0
VERTEX
  8
AM_VIS
  5
967
 10
13.2103
 20
4.58406
 30
0.000000
  70
    32
  0
VERTEX
  8
AM_VIS
  5
968
 10
13.2121
 20
4.58510
 30
0.000000
  70
    32
  0
VERTEX
  8
AM_VIS
  5
969
 10
13.2139
 20
4.58614
 30
0.000000
  70
    32
  0
VERTEX
  8
AM_VIS
  5
96A
 10
13.2157
 20
4.58718
 30
0.000000
  70
    32
  0
VERTEX
  8
AM_VIS
  5
96B
 10
13.2175
 20
4.58820
 30
0.000000
  70
    32
  0
VERTEX
  8
AM_VIS
  5
96C
 10
13.2193
 20
4.58922
 30
0.000000
  70
    32
  0
VERTEX
  8
AM_VIS
  5
96D
 10
13.2212
 20
4.59023
 30
0.000000
  70
    32
  0
VERTEX
  8
AM_VIS
  5
96E
 10
13.2230
 20
4.59124
 30
0.000000
  70
    32
  0
VERTEX
  8
AM_VIS
  5
96F
 10
13.2248
 20
4.59224
 30
0.000000
  70
    32
  0
VERTEX
  8
AM_VIS
  5
970
 10
13.2267
 20
4.59323
 30
0.000000
  70
    32
  0
VERTEX
  8
AM_VIS
  5
971
 10
13.2285
 20
4.59422
 30
0.000000
  70
    32
  0
VERTEX
  8
AM_VIS
  5
972
 10
13.2303
 20
4.59519
 30
0.000000
  70
    32
  0
VERTEX
  8
AM_VIS
  5
973
 10
13.2322
 20
4.59617
 30
0.000000
  70
    32
  0
VERTEX
  8
AM_VIS
  5
974
 10
13.2341
 20
4.59713
 30
0.000000
  70
    32
  0
VERTEX
  8
AM_VIS
  5
975
 10
13.2359
 20
4.59809
 30
0.000000
  70
    32
  0
VERTEX
  8
AM_VIS
  5
976
 10
13.2378
 20
4.59904
 30
0.000000
  70
    32
  0
VERTEX
  8
AM_VIS
  5
977
 10
13.2396
 20
4.59999
 30
0.000000
  70
    32
  0
VERTEX
  8
AM_VIS
  5
978
 10
13.2415
 20
4.60092
 30
0.000000
  70
    32
  0
VERTEX
  8
AM_VIS
  5
979
 10
13.2434
 20
4.60185
 30
0.000000
  70
    32
  0
VERTEX
  8
AM_VIS
  5
97A
 10
13.2452
 20
4.60278
 30
0.000000
  70
    32
  0
VERTEX
  8
AM_VIS
  5
97B
 10
13.2471
 20
4.60370
 30
0.000000
  70
    32
  0
VERTEX
  8
AM_VIS
  5
97C
 10
13.2490
 20
4.60461
 30
0.000000
  70
    32
  0
VERTEX
  8
AM_VIS
  5
97D
 10
13.2509
 20
4.60551
 30
0.000000
  70
    32
  0
VERTEX
  8
AM_VIS
  5
97E
 10
13.2528
 20
4.60641
 30
0.000000
  70
    32
  0
VERTEX
  8
AM_VIS
  5
97F
 10
13.2547
 20
4.60730
 30
0.000000
  70
    32
  0
VERTEX
  8
AM_VIS
  5
980
 10
13.2566
 20
4.60818
 30
0.000000
  70
    32
  0
VERTEX
  8
AM_VIS
  5
981
 10
13.2584
 20
4.60906
 30
0.000000
  70
    32
  0
VERTEX
  8
AM_VIS
  5
982
 10
13.2603
 20
4.60993
 30
0.000000
  70
    32
  0
VERTEX
  8
AM_VIS
  5
983
 10
13.2622
 20
4.61079
 30
0.000000
  70
    32
  0
VERTEX
  8
AM_VIS
  5
984
 10
13.2642
 20
4.61165
 30
0.000000
  70
    32
  0
VERTEX
  8
AM_VIS
  5
985
 10
13.2661
 20
4.61249
 30
0.000000
  70
    32
  0
VERTEX
  8
AM_VIS
  5
986
 10
13.2680
 20
4.61334
 30
0.000000
  70
    32
  0
VERTEX
  8
AM_VIS
  5
987
 10
13.2699
 20
4.61417
 30
0.000000
  70
    32
  0
VERTEX
  8
AM_VIS
  5
988
 10
13.2718
 20
4.61500
 30
0.000000
  70
    32
  0
VERTEX
  8
AM_VIS
  5
989
 10
13.2737
 20
4.61583
 30
0.000000
  70
    32
  0
VERTEX
  8
AM_VIS
  5
98A
 10
13.2756
 20
4.61664
 30
0.000000
  70
    32
  0
VERTEX
  8
AM_VIS
  5
98B
 10
13.2776
 20
4.61745
 30
0.000000
  70
    32
  0
VERTEX
  8
AM_VIS
  5
98C
 10
13.2795
 20
4.61825
 30
0.000000
  70
    32
  0
VERTEX
  8
AM_VIS
  5
98D
 10
13.2814
 20
4.61905
 30
0.000000
  70
    32
  0
VERTEX
  8
AM_VIS
  5
98E
 10
13.2834
 20
4.61984
 30
0.000000
  70
    32
  0
VERTEX
  8
AM_VIS
  5
98F
 10
13.2853
 20
4.62062
 30
0.000000
  70
    32
  0
VERTEX
  8
AM_VIS
  5
990
 10
13.2872
 20
4.62140
 30
0.000000
  70
    32
  0
VERTEX
  8
AM_VIS
  5
991
 10
13.2892
 20
4.62217
 30
0.000000
  70
    32
  0
VERTEX
  8
AM_VIS
  5
992
 10
13.2911
 20
4.62293
 30
0.000000
  70
    32
  0
VERTEX
  8
AM_VIS
  5
993
 10
13.2931
 20
4.62369
 30
0.000000
  70
    32
  0
VERTEX
  8
AM_VIS
  5
994
 10
13.2950
 20
4.62444
 30
0.000000
  70
    32
  0
VERTEX
  8
AM_VIS
  5
995
 10
13.2970
 20
4.62518
 30
0.000000
  70
    32
  0
VERTEX
  8
AM_VIS
  5
996
 10
13.2989
 20
4.62592
 30
0.000000
  70
    32
  0
VERTEX
  8
AM_VIS
  5
997
 10
13.3009
 20
4.62665
 30
0.000000
  70
    32
  0
VERTEX
  8
AM_VIS
  5
998
 10
13.3028
 20
4.62738
 30
0.000000
  70
    32
  0
VERTEX
  8
AM_VIS
  5
999
 10
13.3048
 20
4.62809
 30
0.000000
  70
    32
  0
VERTEX
  8
AM_VIS
  5
99A
 10
13.3067
 20
4.62881
 30
0.000000
  70
    32
  0
VERTEX
  8
AM_VIS
  5
99B
 10
13.3087
 20
4.62951
 30
0.000000
  70
    32
  0
VERTEX
  8
AM_VIS
  5
99C
 10
13.3107
 20
4.63021
 30
0.000000
  70
    32
  0
VERTEX
  8
AM_VIS
  5
99D
 10
13.3126
 20
4.63090
 30
0.000000
  70
    32
  0
VERTEX
  8
AM_VIS
  5
99E
 10
13.3146
 20
4.63159
 30
0.000000
  70
    32
  0
VERTEX
  8
AM_VIS
  5
99F
 10
13.3166
 20
4.63227
 30
0.000000
  70
    32
  0
VERTEX
  8
AM_VIS
  5
9A0
 10
13.3186
 20
4.63294
 30
0.000000
  70
    32
  0
VERTEX
  8
AM_VIS
  5
9A1
 10
13.3205
 20
4.63360
 30
0.000000
  70
    32
  0
VERTEX
  8
AM_VIS
  5
9A2
 10
13.3225
 20
4.63426
 30
0.000000
  70
    32
  0
VERTEX
  8
AM_VIS
  5
9A3
 10
13.3245
 20
4.63492
 30
0.000000
  70
    32
  0
VERTEX
  8
AM_VIS
  5
9A4
 10
13.3265
 20
4.63557
 30
0.000000
  70
    32
  0
VERTEX
  8
AM_VIS
  5
9A5
 10
13.3285
 20
4.63621
 30
0.000000
  70
    32
  0
VERTEX
  8
AM_VIS
  5
9A6
 10
13.3305
 20
4.63684
 30
0.000000
  70
    32
  0
VERTEX
  8
AM_VIS
  5
9A7
 10
13.3325
 20
4.63747
 30
0.000000
  70
    32
  0
VERTEX
  8
AM_VIS
  5
9A8
 10
13.3345
 20
4.63809
 30
0.000000
  70
    32
  0
VERTEX
  8
AM_VIS
  5
9A9
 10
13.3364
 20
4.63871
 30
0.000000
  70
    32
  0
VERTEX
  8
AM_VIS
  5
9AA
 10
13.3384
 20
4.63932
 30
0.000000
  70
    32
  0
VERTEX
  8
AM_VIS
  5
9AB
 10
13.3404
 20
4.63992
 30
0.000000
  70
    32
  0
VERTEX
  8
AM_VIS
  5
9AC
 10
13.3424
 20
4.64052
 30
0.000000
  70
    32
  0
VERTEX
  8
AM_VIS
  5
9AD
 10
13.3444
 20
4.64111
 30
0.000000
  70
    32
  0
VERTEX
  8
AM_VIS
  5
9AE
 10
13.3464
 20
4.64169
 30
0.000000
  70
    32
  0
VERTEX
  8
AM_VIS
  5
9AF
 10
13.3485
 20
4.64227
 30
0.000000
  70
    32
  0
VERTEX
  8
AM_VIS
  5
9B0
 10
13.3505
 20
4.64284
 30
0.000000
  70
    32
  0
VERTEX
  8
AM_VIS
  5
9B1
 10
13.3525
 20
4.64341
 30
0.000000
  70
    32
  0
VERTEX
  8
AM_VIS
  5
9B2
 10
13.3545
 20
4.64397
 30
0.000000
  70
    32
  0
VERTEX
  8
AM_VIS
  5
9B3
 10
13.3565
 20
4.64452
 30
0.000000
  70
    32
  0
VERTEX
  8
AM_VIS
  5
9B4
 10
13.3585
 20
4.64507
 30
0.000000
  70
    32
  0
VERTEX
  8
AM_VIS
  5
9B5
 10
13.3605
 20
4.64561
 30
0.000000
  70
    32
  0
VERTEX
  8
AM_VIS
  5
9B6
 10
13.3625
 20
4.64614
 30
0.000000
  70
    32
  0
VERTEX
  8
AM_VIS
  5
9B7
 10
13.3646
 20
4.64667
 30
0.000000
  70
    32
  0
VERTEX
  8
AM_VIS
  5
9B8
 10
13.3666
 20
4.64720
 30
0.000000
  70
    32
  0
VERTEX
  8
AM_VIS
  5
9B9
 10
13.3686
 20
4.64771
 30
0.000000
  70
    32
  0
VERTEX
  8
AM_VIS
  5
9BA
 10
13.3706
 20
4.64822
 30
0.000000
  70
    32
  0
VERTEX
  8
AM_VIS
  5
9BB
 10
13.3726
 20
4.64873
 30
0.000000
  70
    32
  0
VERTEX
  8
AM_VIS
  5
9BC
 10
13.3747
 20
4.64923
 30
0.000000
  70
    32
  0
VERTEX
  8
AM_VIS
  5
9BD
 10
13.3767
 20
4.64972
 30
0.000000
  70
    32
  0
VERTEX
  8
AM_VIS
  5
9BE
 10
13.3787
 20
4.65021
 30
0.000000
  70
    32
  0
VERTEX
  8
AM_VIS
  5
9BF
 10
13.3808
 20
4.65069
 30
0.000000
  70
    32
  0
VERTEX
  8
AM_VIS
  5
9C0
 10
13.3828
 20
4.65116
 30
0.000000
  70
    32
  0
VERTEX
  8
AM_VIS
  5
9C1
 10
13.3848
 20
4.65163
 30
0.000000
  70
    32
  0
VERTEX
  8
AM_VIS
  5
9C2
 10
13.3869
 20
4.65209
 30
0.000000
  70
    32
  0
VERTEX
  8
AM_VIS
  5
9C3
 10
13.3889
 20
4.65255
 30
0.000000
  70
    32
  0
VERTEX
  8
AM_VIS
  5
9C4
 10
13.3909
 20
4.65300
 30
0.000000
  70
    32
  0
VERTEX
  8
AM_VIS
  5
9C5
 10
13.3930
 20
4.65344
 30
0.000000
  70
    32
  0
VERTEX
  8
AM_VIS
  5
9C6
 10
13.3950
 20
4.65388
 30
0.000000
  70
    32
  0
VERTEX
  8
AM_VIS
  5
9C7
 10
13.3970
 20
4.65431
 30
0.000000
  70
    32
  0
VERTEX
  8
AM_VIS
  5
9C8
 10
13.3991
 20
4.65474
 30
0.000000
  70
    32
  0
VERTEX
  8
AM_VIS
  5
9C9
 10
13.4011
 20
4.65516
 30
0.000000
  70
    32
  0
VERTEX
  8
AM_VIS
  5
9CA
 10
13.4032
 20
4.65557
 30
0.000000
  70
    32
  0
VERTEX
  8
AM_VIS
  5
9CB
 10
13.4052
 20
4.65598
 30
0.000000
  70
    32
  0
VERTEX
  8
AM_VIS
  5
9CC
 10
13.4073
 20
4.65639
 30
0.000000
  70
    32
  0
VERTEX
  8
AM_VIS
  5
9CD
 10
13.4093
 20
4.65678
 30
0.000000
  70
    32
  0
VERTEX
  8
AM_VIS
  5
9CE
 10
13.4113
 20
4.65717
 30
0.000000
  70
    32
  0
VERTEX
  8
AM_VIS
  5
9CF
 10
13.4134
 20
4.65756
 30
0.000000
  70
    32
  0
VERTEX
  8
AM_VIS
  5
9D0
 10
13.4154
 20
4.65794
 30
0.000000
  70
    32
  0
VERTEX
  8
AM_VIS
  5
9D1
 10
13.4175
 20
4.65831
 30
0.000000
  70
    32
  0
VERTEX
  8
AM_VIS
  5
9D2
 10
13.4195
 20
4.65868
 30
0.000000
  70
    32
  0
VERTEX
  8
AM_VIS
  5
9D3
 10
13.4216
 20
4.65904
 30
0.000000
  70
    32
  0
VERTEX
  8
AM_VIS
  5
9D4
 10
13.4236
 20
4.65940
 30
0.000000
  70
    32
  0
VERTEX
  8
AM_VIS
  5
9D5
 10
13.4257
 20
4.65975
 30
0.000000
  70
    32
  0
VERTEX
  8
AM_VIS
  5
9D6
 10
13.4277
 20
4.66010
 30
0.000000
  70
    32
  0
VERTEX
  8
AM_VIS
  5
9D7
 10
13.4298
 20
4.66043
 30
0.000000
  70
    32
  0
VERTEX
  8
AM_VIS
  5
9D8
 10
13.4318
 20
4.66077
 30
0.000000
  70
    32
  0
VERTEX
  8
AM_VIS
  5
9D9
 10
13.4339
 20
4.66110
 30
0.000000
  70
    32
  0
VERTEX
  8
AM_VIS
  5
9DA
 10
13.4360
 20
4.66142
 30
0.000000
  70
    32
  0
VERTEX
  8
AM_VIS
  5
9DB
 10
13.4380
 20
4.66173
 30
0.000000
  70
    32
  0
VERTEX
  8
AM_VIS
  5
9DC
 10
13.4401
 20
4.66204
 30
0.000000
  70
    32
  0
VERTEX
  8
AM_VIS
  5
9DD
 10
13.4421
 20
4.66235
 30
0.000000
  70
    32
  0
VERTEX
  8
AM_VIS
  5
9DE
 10
13.4442
 20
4.66265
 30
0.000000
  70
    32
  0
VERTEX
  8
AM_VIS
  5
9DF
 10
13.4463
 20
4.66294
 30
0.000000
  70
    32
  0
VERTEX
  8
AM_VIS
  5
9E0
 10
13.4483
 20
4.66323
 30
0.000000
  70
    32
  0
VERTEX
  8
AM_VIS
  5
9E1
 10
13.4504
 20
4.66352
 30
0.000000
  70
    32
  0
VERTEX
  8
AM_VIS
  5
9E2
 10
13.4525
 20
4.66379
 30
0.000000
  70
    32
  0
VERTEX
  8
AM_VIS
  5
9E3
 10
13.4545
 20
4.66407
 30
0.000000
  70
    32
  0
VERTEX
  8
AM_VIS
  5
9E4
 10
13.4566
 20
4.66433
 30
0.000000
  70
    32
  0
VERTEX
  8
AM_VIS
  5
9E5
 10
13.4587
 20
4.66460
 30
0.000000
  70
    32
  0
VERTEX
  8
AM_VIS
  5
9E6
 10
13.4608
 20
4.66485
 30
0.000000
  70
    32
  0
VERTEX
  8
AM_VIS
  5
9E7
 10
13.4628
 20
4.66510
 30
0.000000
  70
    32
  0
VERTEX
  8
AM_VIS
  5
9E8
 10
13.4649
 20
4.66535
 30
0.000000
  70
    32
  0
VERTEX
  8
AM_VIS
  5
9E9
 10
13.4670
 20
4.66559
 30
0.000000
  70
    32
  0
VERTEX
  8
AM_VIS
  5
9EA
 10
13.4691
 20
4.66582
 30
0.000000
  70
    32
  0
VERTEX
  8
AM_VIS
  5
9EB
 10
13.4712
 20
4.66605
 30
0.000000
  70
    32
  0
VERTEX
  8
AM_VIS
  5
9EC
 10
13.4733
 20
4.66627
 30
0.000000
  70
    32
  0
VERTEX
  8
AM_VIS
  5
9ED
 10
13.4753
 20
4.66649
 30
0.000000
  70
    32
  0
VERTEX
  8
AM_VIS
  5
9EE
 10
13.4774
 20
4.66670
 30
0.000000
  70
    32
  0
VERTEX
  8
AM_VIS
  5
9EF
 10
13.4795
 20
4.66691
 30
0.000000
  70
    32
  0
VERTEX
  8
AM_VIS
  5
9F0
 10
13.4816
 20
4.66711
 30
0.000000
  70
    32
  0
VERTEX
  8
AM_VIS
  5
9F1
 10
13.4837
 20
4.66731
 30
0.000000
  70
    32
  0
VERTEX
  8
AM_VIS
  5
9F2
 10
13.4858
 20
4.66750
 30
0.000000
  70
    32
  0
VERTEX
  8
AM_VIS
  5
9F3
 10
13.4879
 20
4.66768
 30
0.000000
  70
    32
  0
VERTEX
  8
AM_VIS
  5
9F4
 10
13.4900
 20
4.66786
 30
0.000000
  70
    32
  0
VERTEX
  8
AM_VIS
  5
9F5
 10
13.4921
 20
4.66803
 30
0.000000
  70
    32
  0
VERTEX
  8
AM_VIS
  5
9F6
 10
13.4942
 20
4.66820
 30
0.000000
  70
    32
  0
VERTEX
  8
AM_VIS
  5
9F7
 10
13.4963
 20
4.66836
 30
0.000000
  70
    32
  0
VERTEX
  8
AM_VIS
  5
9F8
 10
13.4984
 20
4.66852
 30
0.000000
  70
    32
  0
VERTEX
  8
AM_VIS
  5
9F9
 10
13.5005
 20
4.66867
 30
0.000000
  70
    32
  0
VERTEX
  8
AM_VIS
  5
9FA
 10
13.5026
 20
4.66882
 30
0.000000
  70
    32
  0
VERTEX
  8
AM_VIS
  5
9FB
 10
13.5047
 20
4.66896
 30
0.000000
  70
    32
  0
VERTEX
  8
AM_VIS
  5
9FC
 10
13.5069
 20
4.66909
 30
0.000000
  70
    32
  0
VERTEX
  8
AM_VIS
  5
9FD
 10
13.5090
 20
4.66922
 30
0.000000
  70
    32
  0
VERTEX
  8
AM_VIS
  5
9FE
 10
13.5111
 20
4.66934
 30
0.000000
  70
    32
  0
VERTEX
  8
AM_VIS
  5
9FF
 10
13.5132
 20
4.66946
 30
0.000000
  70
    32
  0
VERTEX
  8
AM_VIS
  5
A00
 10
13.5153
 20
4.66957
 30
0.000000
  70
    32
  0
VERTEX
  8
AM_VIS
  5
A01
 10
13.5174
 20
4.66968
 30
0.000000
  70
    32
  0
VERTEX
  8
AM_VIS
  5
A02
 10
13.5195
 20
4.66978
 30
0.000000
  70
    32
  0
VERTEX
  8
AM_VIS
  5
A03
 10
13.5216
 20
4.66987
 30
0.000000
  70
    32
  0
VERTEX
  8
AM_VIS
  5
A04
 10
13.5238
 20
4.66996
 30
0.000000
  70
    32
  0
VERTEX
  8
AM_VIS
  5
A05
 10
13.5259
 20
4.67005
 30
0.000000
  70
    32
  0
VERTEX
  8
AM_VIS
  5
A06
 10
13.5280
 20
4.67013
 30
0.000000
  70
    32
  0
VERTEX
  8
AM_VIS
  5
A07
 10
13.5301
 20
4.67020
 30
0.000000
  70
    32
  0
VERTEX
  8
AM_VIS
  5
A08
 10
13.5322
 20
4.67027
 30
0.000000
  70
    32
  0
VERTEX
  8
AM_VIS
  5
A09
 10
13.5344
 20
4.67033
 30
0.000000
  70
    32
  0
VERTEX
  8
AM_VIS
  5
A0A
 10
13.5365
 20
4.67038
 30
0.000000
  70
    32
  0
VERTEX
  8
AM_VIS
  5
A0B
 10
13.5386
 20
4.67043
 30
0.000000
  70
    32
  0
VERTEX
  8
AM_VIS
  5
A0C
 10
13.5407
 20
4.67048
 30
0.000000
  70
    32
  0
VERTEX
  8
AM_VIS
  5
A0D
 10
13.5428
 20
4.67051
 30
0.000000
  70
    32
  0
VERTEX
  8
AM_VIS
  5
A0E
 10
13.5450
 20
4.67055
 30
0.000000
  70
    32
  0
VERTEX
  8
AM_VIS
  5
A0F
 10
13.5471
 20
4.67057
 30
0.000000
  70
    32
  0
VERTEX
  8
AM_VIS
  5
A10
 10
13.5492
 20
4.67059
 30
0.000000
  70
    32
  0
VERTEX
  8
AM_VIS
  5
A11
 10
13.5513
 20
4.67061
 30
0.000000
  70
    32
  0
VERTEX
  8
AM_VIS
  5
A12
 10
13.5534
 20
4.67062
 30
0.000000
  70
    32
  0
VERTEX
  8
AM_VIS
  5
A13
 10
13.5556
 20
4.67062
 30
0.000000
  70
    32
  0
VERTEX
  8
AM_VIS
  5
A14
 10
13.5577
 20
4.67062
 30
0.000000
  70
    32
  0
VERTEX
  8
AM_VIS
  5
A15
 10
13.5598
 20
4.67061
 30
0.000000
  70
    32
  0
VERTEX
  8
AM_VIS
  5
A16
 10
13.5619
 20
4.67060
 30
0.000000
  70
    32
  0
VERTEX
  8
AM_VIS
  5
A17
 10
13.5641
 20
4.67058
 30
0.000000
  70
    32
  0
VERTEX
  8
AM_VIS
  5
A18
 10
13.5662
 20
4.67056
 30
0.000000
  70
    32
  0
VERTEX
  8
AM_VIS
  5
A19
 10
13.5683
 20
4.67053
 30
0.000000
  70
    32
  0
VERTEX
  8
AM_VIS
  5
A1A
 10
13.5704
 20
4.67049
 30
0.000000
  70
    32
  0
VERTEX
  8
AM_VIS
  5
A1B
 10
13.5725
 20
4.67045
 30
0.000000
  70
    32
  0
VERTEX
  8
AM_VIS
  5
A1C
 10
13.5747
 20
4.67040
 30
0.000000
  70
    32
  0
VERTEX
  8
AM_VIS
  5
A1D
 10
13.5768
 20
4.67035
 30
0.000000
  70
    32
  0
VERTEX
  8
AM_VIS
  5
A1E
 10
13.5789
 20
4.67029
 30
0.000000
  70
    32
  0
VERTEX
  8
AM_VIS
  5
A1F
 10
13.5810
 20
4.67022
 30
0.000000
  70
    32
  0
VERTEX
  8
AM_VIS
  5
A20
 10
13.5831
 20
4.67015
 30
0.000000
  70
    32
  0
VERTEX
  8
AM_VIS
  5
A21
 10
13.5853
 20
4.67008
 30
0.000000
  70
    32
  0
VERTEX
  8
AM_VIS
  5
A22
 10
13.5874
 20
4.66999
 30
0.000000
  70
    32
  0
VERTEX
  8
AM_VIS
  5
A23
 10
13.5895
 20
4.66990
 30
0.000000
  70
    32
  0
VERTEX
  8
AM_VIS
  5
A24
 10
13.5916
 20
4.66981
 30
0.000000
  70
    32
  0
VERTEX
  8
AM_VIS
  5
A25
 10
13.5937
 20
4.66971
 30
0.000000
  70
    32
  0
VERTEX
  8
AM_VIS
  5
A26
 10
13.5959
 20
4.66960
 30
0.000000
  70
    32
  0
VERTEX
  8
AM_VIS
  5
A27
 10
13.5980
 20
4.66949
 30
0.000000
  70
    32
  0
VERTEX
  8
AM_VIS
  5
A28
 10
13.6001
 20
4.66937
 30
0.000000
  70
    32
  0
VERTEX
  8
AM_VIS
  5
A29
 10
13.6022
 20
4.66925
 30
0.000000
  70
    32
  0
VERTEX
  8
AM_VIS
  5
A2A
 10
13.6043
 20
4.66912
 30
0.000000
  70
    32
  0
VERTEX
  8
AM_VIS
  5
A2B
 10
13.6064
 20
4.66899
 30
0.000000
  70
    32
  0
VERTEX
  8
AM_VIS
  5
A2C
 10
13.6085
 20
4.66884
 30
0.000000
  70
    32
  0
VERTEX
  8
AM_VIS
  5
A2D
 10
13.6106
 20
4.66870
 30
0.000000
  70
    32
  0
VERTEX
  8
AM_VIS
  5
A2E
 10
13.6128
 20
4.66855
 30
0.000000
  70
    32
  0
VERTEX
  8
AM_VIS
  5
A2F
 10
13.6149
 20
4.66839
 30
0.000000
  70
    32
  0
VERTEX
  8
AM_VIS
  5
A30
 10
13.6170
 20
4.66822
 30
0.000000
  70
    32
  0
VERTEX
  8
AM_VIS
  5
A31
 10
13.6191
 20
4.66805
 30
0.000000
  70
    32
  0
VERTEX
  8
AM_VIS
  5
A32
 10
13.6212
 20
4.66787
 30
0.000000
  70
    32
  0
VERTEX
  8
AM_VIS
  5
A33
 10
13.6233
 20
4.66769
 30
0.000000
  70
    32
  0
VERTEX
  8
AM_VIS
  5
A34
 10
13.6254
 20
4.66750
 30
0.000000
  70
    32
  0
VERTEX
  8
AM_VIS
  5
A35
 10
13.6275
 20
4.66731
 30
0.000000
  70
    32
  0
VERTEX
  8
AM_VIS
  5
A36
 10
13.6296
 20
4.66711
 30
0.000000
  70
    32
  0
VERTEX
  8
AM_VIS
  5
A37
 10
13.6317
 20
4.66690
 30
0.000000
  70
    32
  0
VERTEX
  8
AM_VIS
  5
A38
 10
13.6338
 20
4.66669
 30
0.000000
  70
    32
  0
VERTEX
  8
AM_VIS
  5
A39
 10
13.6359
 20
4.66647
 30
0.000000
  70
    32
  0
VERTEX
  8
AM_VIS
  5
A3A
 10
13.6380
 20
4.66625
 30
0.000000
  70
    32
  0
VERTEX
  8
AM_VIS
  5
A3B
 10
13.6401
 20
4.66602
 30
0.000000
  70
    32
  0
VERTEX
  8
AM_VIS
  5
A3C
 10
13.6422
 20
4.66578
 30
0.000000
  70
    32
  0
VERTEX
  8
AM_VIS
  5
A3D
 10
13.6443
 20
4.66554
 30
0.000000
  70
    32
  0
VERTEX
  8
AM_VIS
  5
A3E
 10
13.6464
 20
4.66529
 30
0.000000
  70
    32
  0
VERTEX
  8
AM_VIS
  5
A3F
 10
13.6484
 20
4.66504
 30
0.000000
  70
    32
  0
VERTEX
  8
AM_VIS
  5
A40
 10
13.6505
 20
4.66478
 30
0.000000
  70
    32
  0
VERTEX
  8
AM_VIS
  5
A41
 10
13.6526
 20
4.66451
 30
0.000000
  70
    32
  0
VERTEX
  8
AM_VIS
  5
A42
 10
13.6547
 20
4.66424
 30
0.000000
  70
    32
  0
VERTEX
  8
AM_VIS
  5
A43
 10
13.6568
 20
4.66396
 30
0.000000
  70
    32
  0
VERTEX
  8
AM_VIS
  5
A44
 10
13.6588
 20
4.66368
 30
0.000000
  70
    32
  0
VERTEX
  8
AM_VIS
  5
A45
 10
13.6609
 20
4.66339
 30
0.000000
  70
    32
  0
VERTEX
  8
AM_VIS
  5
A46
 10
13.6630
 20
4.66309
 30
0.000000
  70
    32
  0
VERTEX
  8
AM_VIS
  5
A47
 10
13.6651
 20
4.66279
 30
0.000000
  70
    32
  0
VERTEX
  8
AM_VIS
  5
A48
 10
13.6671
 20
4.66248
 30
0.000000
  70
    32
  0
VERTEX
  8
AM_VIS
  5
A49
 10
13.6692
 20
4.66217
 30
0.000000
  70
    32
  0
VERTEX
  8
AM_VIS
  5
A4A
 10
13.6713
 20
4.66185
 30
0.000000
  70
    32
  0
VERTEX
  8
AM_VIS
  5
A4B
 10
13.6733
 20
4.66152
 30
0.000000
  70
    32
  0
VERTEX
  8
AM_VIS
  5
A4C
 10
13.6754
 20
4.66119
 30
0.000000
  70
    32
  0
VERTEX
  8
AM_VIS
  5
A4D
 10
13.6775
 20
4.66085
 30
0.000000
  70
    32
  0
VERTEX
  8
AM_VIS
  5
A4E
 10
13.6795
 20
4.66051
 30
0.000000
  70
    32
  0
VERTEX
  8
AM_VIS
  5
A4F
 10
13.6816
 20
4.66016
 30
0.000000
  70
    32
  0
VERTEX
  8
AM_VIS
  5
A50
 10
13.6836
 20
4.65980
 30
0.000000
  70
    32
  0
VERTEX
  8
AM_VIS
  5
A51
 10
13.6857
 20
4.65944
 30
0.000000
  70
    32
  0
VERTEX
  8
AM_VIS
  5
A52
 10
13.6877
 20
4.65907
 30
0.000000
  70
    32
  0
VERTEX
  8
AM_VIS
  5
A53
 10
13.6898
 20
4.65870
 30
0.000000
  70
    32
  0
VERTEX
  8
AM_VIS
  5
A54
 10
13.6918
 20
4.65832
 30
0.000000
  70
    32
  0
VERTEX
  8
AM_VIS
  5
A55
 10
13.6938
 20
4.65794
 30
0.000000
  70
    32
  0
VERTEX
  8
AM_VIS
  5
A56
 10
13.6958
 20
4.65755
 30
0.000000
  70
    32
  0
VERTEX
  8
AM_VIS
  5
A57
 10
13.6978
 20
4.65716
 30
0.000000
  70
    32
  0
VERTEX
  8
AM_VIS
  5
A58
 10
13.6998
 20
4.65676
 30
0.000000
  70
    32
  0
VERTEX
  8
AM_VIS
  5
A59
 10
13.7018
 20
4.65636
 30
0.000000
  70
    32
  0
VERTEX
  8
AM_VIS
  5
A5A
 10
13.7038
 20
4.65596
 30
0.000000
  70
    32
  0
VERTEX
  8
AM_VIS
  5
A5B
 10
13.7057
 20
4.65555
 30
0.000000
  70
    32
  0
VERTEX
  8
AM_VIS
  5
A5C
 10
13.7077
 20
4.65514
 30
0.000000
  70
    32
  0
VERTEX
  8
AM_VIS
  5
A5D
 10
13.7096
 20
4.65472
 30
0.000000
  70
    32
  0
VERTEX
  8
AM_VIS
  5
A5E
 10
13.7115
 20
4.65430
 30
0.000000
  70
    32
  0
VERTEX
  8
AM_VIS
  5
A5F
 10
13.7135
 20
4.65387
 30
0.000000
  70
    32
  0
VERTEX
  8
AM_VIS
  5
A60
 10
13.7154
 20
4.65345
 30
0.000000
  70
    32
  0
VERTEX
  8
AM_VIS
  5
A61
 10
13.7173
 20
4.65301
 30
0.000000
  70
    32
  0
VERTEX
  8
AM_VIS
  5
A62
 10
13.7192
 20
4.65258
 30
0.000000
  70
    32
  0
VERTEX
  8
AM_VIS
  5
A63
 10
13.7210
 20
4.65214
 30
0.000000
  70
    32
  0
VERTEX
  8
AM_VIS
  5
A64
 10
13.7229
 20
4.65169
 30
0.000000
  70
    32
  0
VERTEX
  8
AM_VIS
  5
A65
 10
13.7248
 20
4.65124
 30
0.000000
  70
    32
  0
VERTEX
  8
AM_VIS
  5
A66
 10
13.7266
 20
4.65079
 30
0.000000
  70
    32
  0
VERTEX
  8
AM_VIS
  5
A67
 10
13.7285
 20
4.65034
 30
0.000000
  70
    32
  0
VERTEX
  8
AM_VIS
  5
A68
 10
13.7303
 20
4.64988
 30
0.000000
  70
    32
  0
VERTEX
  8
AM_VIS
  5
A69
 10
13.7321
 20
4.64941
 30
0.000000
  70
    32
  0
VERTEX
  8
AM_VIS
  5
A6A
 10
13.7340
 20
4.64895
 30
0.000000
  70
    32
  0
VERTEX
  8
AM_VIS
  5
A6B
 10
13.7358
 20
4.64848
 30
0.000000
  70
    32
  0
VERTEX
  8
AM_VIS
  5
A6C
 10
13.7376
 20
4.64801
 30
0.000000
  70
    32
  0
VERTEX
  8
AM_VIS
  5
A6D
 10
13.7394
 20
4.64753
 30
0.000000
  70
    32
  0
VERTEX
  8
AM_VIS
  5
A6E
 10
13.7411
 20
4.64705
 30
0.000000
  70
    32
  0
VERTEX
  8
AM_VIS
  5
A6F
 10
13.7429
 20
4.64657
 30
0.000000
  70
    32
  0
VERTEX
  8
AM_VIS
  5
A70
 10
13.7447
 20
4.64608
 30
0.000000
  70
    32
  0
VERTEX
  8
AM_VIS
  5
A71
 10
13.7464
 20
4.64560
 30
0.000000
  70
    32
  0
VERTEX
  8
AM_VIS
  5
A72
 10
13.7481
 20
4.64511
 30
0.000000
  70
    32
  0
VERTEX
  8
AM_VIS
  5
A73
 10
13.7499
 20
4.64461
 30
0.000000
  70
    32
  0
VERTEX
  8
AM_VIS
  5
A74
 10
13.7516
 20
4.64411
 30
0.000000
  70
    32
  0
VERTEX
  8
AM_VIS
  5
A75
 10
13.7533
 20
4.64361
 30
0.000000
  70
    32
  0
VERTEX
  8
AM_VIS
  5
A76
 10
13.7550
 20
4.64311
 30
0.000000
  70
    32
  0
VERTEX
  8
AM_VIS
  5
A77
 10
13.7567
 20
4.64260
 30
0.000000
  70
    32
  0
VERTEX
  8
AM_VIS
  5
A78
 10
13.7584
 20
4.64210
 30
0.000000
  70
    32
  0
VERTEX
  8
AM_VIS
  5
A79
 10
13.7601
 20
4.64158
 30
0.000000
  70
    32
  0
VERTEX
  8
AM_VIS
  5
A7A
 10
13.7617
 20
4.64107
 30
0.000000
  70
    32
  0
VERTEX
  8
AM_VIS
  5
A7B
 10
13.7634
 20
4.64055
 30
0.000000
  70
    32
  0
VERTEX
  8
AM_VIS
  5
A7C
 10
13.7650
 20
4.64003
 30
0.000000
  70
    32
  0
VERTEX
  8
AM_VIS
  5
A7D
 10
13.7667
 20
4.63951
 30
0.000000
  70
    32
  0
VERTEX
  8
AM_VIS
  5
A7E
 10
13.7683
 20
4.63899
 30
0.000000
  70
    32
  0
VERTEX
  8
AM_VIS
  5
A7F
 10
13.7699
 20
4.63846
 30
0.000000
  70
    32
  0
VERTEX
  8
AM_VIS
  5
A80
 10
13.7716
 20
4.63793
 30
0.000000
  70
    32
  0
VERTEX
  8
AM_VIS
  5
A81
 10
13.7732
 20
4.63740
 30
0.000000
  70
    32
  0
VERTEX
  8
AM_VIS
  5
A82
 10
13.7748
 20
4.63687
 30
0.000000
  70
    32
  0
VERTEX
  8
AM_VIS
  5
A83
 10
13.7763
 20
4.63634
 30
0.000000
  70
    32
  0
VERTEX
  8
AM_VIS
  5
A84
 10
13.7779
 20
4.63580
 30
0.000000
  70
    32
  0
VERTEX
  8
AM_VIS
  5
A85
 10
13.7795
 20
4.63526
 30
0.000000
  70
    32
  0
VERTEX
  8
AM_VIS
  5
A86
 10
13.7810
 20
4.63472
 30
0.000000
  70
    32
  0
VERTEX
  8
AM_VIS
  5
A87
 10
13.7826
 20
4.63417
 30
0.000000
  70
    32
  0
VERTEX
  8
AM_VIS
  5
A88
 10
13.7841
 20
4.63363
 30
0.000000
  70
    32
  0
VERTEX
  8
AM_VIS
  5
A89
 10
13.7857
 20
4.63308
 30
0.000000
  70
    32
  0
VERTEX
  8
AM_VIS
  5
A8A
 10
13.7872
 20
4.63253
 30
0.000000
  70
    32
  0
VERTEX
  8
AM_VIS
  5
A8B
 10
13.7887
 20
4.63198
 30
0.000000
  70
    32
  0
VERTEX
  8
AM_VIS
  5
A8C
 10
13.7902
 20
4.63143
 30
0.000000
  70
    32
  0
VERTEX
  8
AM_VIS
  5
A8D
 10
13.7917
 20
4.63088
 30
0.000000
  70
    32
  0
VERTEX
  8
AM_VIS
  5
A8E
 10
13.7932
 20
4.63032
 30
0.000000
  70
    32
  0
VERTEX
  8
AM_VIS
  5
A8F
 10
13.7947
 20
4.62976
 30
0.000000
  70
    32
  0
VERTEX
  8
AM_VIS
  5
A90
 10
13.7961
 20
4.62921
 30
0.000000
  70
    32
  0
VERTEX
  8
AM_VIS
  5
A91
 10
13.7976
 20
4.62865
 30
0.000000
  70
    32
  0
VERTEX
  8
AM_VIS
  5
A92
 10
13.7991
 20
4.62808
 30
0.000000
  70
    32
  0
VERTEX
  8
AM_VIS
  5
A93
 10
13.8005
 20
4.62752
 30
0.000000
  70
    32
  0
VERTEX
  8
AM_VIS
  5
A94
 10
13.8019
 20
4.62696
 30
0.000000
  70
    32
  0
VERTEX
  8
AM_VIS
  5
A95
 10
13.8034
 20
4.62639
 30
0.000000
  70
    32
  0
VERTEX
  8
AM_VIS
  5
A96
 10
13.8048
 20
4.62583
 30
0.000000
  70
    32
  0
VERTEX
  8
AM_VIS
  5
A97
 10
13.8062
 20
4.62526
 30
0.000000
  70
    32
  0
VERTEX
  8
AM_VIS
  5
A98
 10
13.8076
 20
4.62469
 30
0.000000
  70
    32
  0
VERTEX
  8
AM_VIS
  5
A99
 10
13.8090
 20
4.62412
 30
0.000000
  70
    32
  0
VERTEX
  8
AM_VIS
  5
A9A
 10
13.8104
 20
4.62355
 30
0.000000
  70
    32
  0
VERTEX
  8
AM_VIS
  5
A9B
 10
13.8117
 20
4.62298
 30
0.000000
  70
    32
  0
VERTEX
  8
AM_VIS
  5
A9C
 10
13.8131
 20
4.62241
 30
0.000000
  70
    32
  0
VERTEX
  8
AM_VIS
  5
A9D
 10
13.8145
 20
4.62183
 30
0.000000
  70
    32
  0
VERTEX
  8
AM_VIS
  5
A9E
 10
13.8158
 20
4.62126
 30
0.000000
  70
    32
  0
VERTEX
  8
AM_VIS
  5
A9F
 10
13.8172
 20
4.62069
 30
0.000000
  70
    32
  0
VERTEX
  8
AM_VIS
  5
AA0
 10
13.8185
 20
4.62011
 30
0.000000
  70
    32
  0
VERTEX
  8
AM_VIS
  5
AA1
 10
13.8198
 20
4.61953
 30
0.000000
  70
    32
  0
VERTEX
  8
AM_VIS
  5
AA2
 10
13.8211
 20
4.61896
 30
0.000000
  70
    32
  0
VERTEX
  8
AM_VIS
  5
AA3
 10
13.8224
 20
4.61838
 30
0.000000
  70
    32
  0
VERTEX
  8
AM_VIS
  5
AA4
 10
13.8237
 20
4.61780
 30
0.000000
  70
    32
  0
VERTEX
  8
AM_VIS
  5
AA5
 10
13.8250
 20
4.61723
 30
0.000000
  70
    32
  0
VERTEX
  8
AM_VIS
  5
AA6
 10
13.8263
 20
4.61665
 30
0.000000
  70
    32
  0
VERTEX
  8
AM_VIS
  5
AA7
 10
13.8276
 20
4.61607
 30
0.000000
  70
    32
  0
VERTEX
  8
AM_VIS
  5
AA8
 10
13.8288
 20
4.61549
 30
0.000000
  70
    32
  0
VERTEX
  8
AM_VIS
  5
AA9
 10
13.8301
 20
4.61491
 30
0.000000
  70
    32
  0
VERTEX
  8
AM_VIS
  5
AAA
 10
13.8313
 20
4.61433
 30
0.000000
  70
    32
  0
VERTEX
  8
AM_VIS
  5
AAB
 10
13.8326
 20
4.61375
 30
0.000000
  70
    32
  0
VERTEX
  8
AM_VIS
  5
AAC
 10
13.8338
 20
4.61318
 30
0.000000
  70
    32
  0
VERTEX
  8
AM_VIS
  5
AAD
 10
13.8350
 20
4.61260
 30
0.000000
  70
    32
  0
VERTEX
  8
AM_VIS
  5
AAE
 10
13.8363
 20
4.61202
 30
0.000000
  70
    32
  0
VERTEX
  8
AM_VIS
  5
AAF
 10
13.8375
 20
4.61144
 30
0.000000
  70
    32
  0
VERTEX
  8
AM_VIS
  5
AB0
 10
13.8387
 20
4.61086
 30
0.000000
  70
    32
  0
VERTEX
  8
AM_VIS
  5
AB1
 10
13.8399
 20
4.61028
 30
0.000000
  70
    32
  0
VERTEX
  8
AM_VIS
  5
AB2
 10
13.8410
 20
4.60970
 30
0.000000
  70
    32
  0
VERTEX
  8
AM_VIS
  5
AB3
 10
13.8422
 20
4.60913
 30
0.000000
  70
    32
  0
VERTEX
  8
AM_VIS
  5
AB4
 10
13.8434
 20
4.60855
 30
0.000000
  70
    32
  0
VERTEX
  8
AM_VIS
  5
AB5
 10
13.8445
 20
4.60797
 30
0.000000
  70
    32
  0
VERTEX
  8
AM_VIS
  5
AB6
 10
13.8457
 20
4.60740
 30
0.000000
  70
    32
  0
VERTEX
  8
AM_VIS
  5
AB7
 10
13.8468
 20
4.60682
 30
0.000000
  70
    32
  0
VERTEX
  8
AM_VIS
  5
AB8
 10
13.8480
 20
4.60624
 30
0.000000
  70
    32
  0
VERTEX
  8
AM_VIS
  5
AB9
 10
13.8491
 20
4.60567
 30
0.000000
  70
    32
  0
VERTEX
  8
AM_VIS
  5
ABA
 10
13.8502
 20
4.60510
 30
0.000000
  70
    32
  0
VERTEX
  8
AM_VIS
  5
ABB
 10
13.8513
 20
4.60452
 30
0.000000
  70
    32
  0
VERTEX
  8
AM_VIS
  5
ABC
 10
13.8524
 20
4.60395
 30
0.000000
  70
    32
  0
VERTEX
  8
AM_VIS
  5
ABD
 10
13.8535
 20
4.60338
 30
0.000000
  70
    32
  0
VERTEX
  8
AM_VIS
  5
ABE
 10
13.8546
 20
4.60281
 30
0.000000
  70
    32
  0
VERTEX
  8
AM_VIS
  5
ABF
 10
13.8557
 20
4.60224
 30
0.000000
  70
    32
  0
VERTEX
  8
AM_VIS
  5
AC0
 10
13.8568
 20
4.60167
 30
0.000000
  70
    32
  0
VERTEX
  8
AM_VIS
  5
AC1
 10
13.8578
 20
4.60110
 30
0.000000
  70
    32
  0
VERTEX
  8
AM_VIS
  5
AC2
 10
13.8589
 20
4.60053
 30
0.000000
  70
    32
  0
VERTEX
  8
AM_VIS
  5
AC3
 10
13.8599
 20
4.59997
 30
0.000000
  70
    32
  0
VERTEX
  8
AM_VIS
  5
AC4
 10
13.8610
 20
4.59940
 30
0.000000
  70
    32
  0
VERTEX
  8
AM_VIS
  5
AC5
 10
13.8620
 20
4.59884
 30
0.000000
  70
    32
  0
VERTEX
  8
AM_VIS
  5
AC6
 10
13.8630
 20
4.59828
 30
0.000000
  70
    32
  0
VERTEX
  8
AM_VIS
  5
AC7
 10
13.8640
 20
4.59772
 30
0.000000
  70
    32
  0
VERTEX
  8
AM_VIS
  5
AC8
 10
13.8650
 20
4.59716
 30
0.000000
  70
    32
  0
VERTEX
  8
AM_VIS
  5
AC9
 10
13.8660
 20
4.59660
 30
0.000000
  70
    32
  0
VERTEX
  8
AM_VIS
  5
ACA
 10
13.8670
 20
4.59605
 30
0.000000
  70
    32
  0
VERTEX
  8
AM_VIS
  5
ACB
 10
13.8680
 20
4.59549
 30
0.000000
  70
    32
  0
VERTEX
  8
AM_VIS
  5
ACC
 10
13.8690
 20
4.59494
 30
0.000000
  70
    32
  0
VERTEX
  8
AM_VIS
  5
ACD
 10
13.8700
 20
4.59439
 30
0.000000
  70
    32
  0
VERTEX
  8
AM_VIS
  5
ACE
 10
13.8709
 20
4.59384
 30
0.000000
  70
    32
  0
VERTEX
  8
AM_VIS
  5
ACF
 10
13.8719
 20
4.59329
 30
0.000000
  70
    32
  0
VERTEX
  8
AM_VIS
  5
AD0
 10
13.8728
 20
4.59275
 30
0.000000
  70
    32
  0
SEQEND
  8
AM_VIS
  5
AD1
  0
POLYLINE
  8
AM_VIS
  5
AD2
  66
     1
 10
0.000000
 20
0.000000
 30
0.000000
  70
     8
  0
VERTEX
  8
AM_VIS
  5
AD3
 10
13.8728
 20
4.59275
 30
0.000000
  70
    32
  0
VERTEX
  8
AM_VIS
  5
AD4
 10
13.8742
 20
4.59195
 30
0.000000
  70
    32
  0
VERTEX
  8
AM_VIS
  5
AD5
 10
13.8756
 20
4.59114
 30
0.000000
  70
    32
  0
VERTEX
  8
AM_VIS
  5
AD6
 10
13.8770
 20
4.59033
 30
0.000000
  70
    32
  0
VERTEX
  8
AM_VIS
  5
AD7
 10
13.8784
 20
4.58950
 30
0.000000
  70
    32
  0
VERTEX
  8
AM_VIS
  5
AD8
 10
13.8798
 20
4.58866
 30
0.000000
  70
    32
  0
VERTEX
  8
AM_VIS
  5
AD9
 10
13.8812
 20
4.58780
 30
0.000000
  70
    32
  0
VERTEX
  8
AM_VIS
  5
ADA
 10
13.8826
 20
4.58694
 30
0.000000
  70
    32
  0
VERTEX
  8
AM_VIS
  5
ADB
 10
13.8841
 20
4.58607
 30
0.000000
  70
    32
  0
VERTEX
  8
AM_VIS
  5
ADC
 10
13.8855
 20
4.58518
 30
0.000000
  70
    32
  0
VERTEX
  8
AM_VIS
  5
ADD
 10
13.8870
 20
4.58428
 30
0.000000
  70
    32
  0
VERTEX
  8
AM_VIS
  5
ADE
 10
13.8884
 20
4.58337
 30
0.000000
  70
    32
  0
VERTEX
  8
AM_VIS
  5
ADF
 10
13.8899
 20
4.58245
 30
0.000000
  70
    32
  0
VERTEX
  8
AM_VIS
  5
AE0
 10
13.8914
 20
4.58152
 30
0.000000
  70
    32
  0
VERTEX
  8
AM_VIS
  5
AE1
 10
13.8929
 20
4.58057
 30
0.000000
  70
    32
  0
VERTEX
  8
AM_VIS
  5
AE2
 10
13.8944
 20
4.57961
 30
0.000000
  70
    32
  0
VERTEX
  8
AM_VIS
  5
AE3
 10
13.8959
 20
4.57864
 30
0.000000
  70
    32
  0
VERTEX
  8
AM_VIS
  5
AE4
 10
13.8974
 20
4.57766
 30
0.000000
  70
    32
  0
VERTEX
  8
AM_VIS
  5
AE5
 10
13.8989
 20
4.57666
 30
0.000000
  70
    32
  0
VERTEX
  8
AM_VIS
  5
AE6
 10
13.9004
 20
4.57565
 30
0.000000
  70
    32
  0
VERTEX
  8
AM_VIS
  5
AE7
 10
13.9020
 20
4.57463
 30
0.000000
  70
    32
  0
VERTEX
  8
AM_VIS
  5
AE8
 10
13.9035
 20
4.57360
 30
0.000000
  70
    32
  0
VERTEX
  8
AM_VIS
  5
AE9
 10
13.9051
 20
4.57255
 30
0.000000
  70
    32
  0
VERTEX
  8
AM_VIS
  5
AEA
 10
13.9066
 20
4.57149
 30
0.000000
  70
    32
  0
VERTEX
  8
AM_VIS
  5
AEB
 10
13.9082
 20
4.57042
 30
0.000000
  70
    32
  0
VERTEX
  8
AM_VIS
  5
AEC
 10
13.9097
 20
4.56934
 30
0.000000
  70
    32
  0
VERTEX
  8
AM_VIS
  5
AED
 10
13.9113
 20
4.56824
 30
0.000000
  70
    32
  0
VERTEX
  8
AM_VIS
  5
AEE
 10
13.9129
 20
4.56712
 30
0.000000
  70
    32
  0
VERTEX
  8
AM_VIS
  5
AEF
 10
13.9145
 20
4.56600
 30
0.000000
  70
    32
  0
VERTEX
  8
AM_VIS
  5
AF0
 10
13.9161
 20
4.56486
 30
0.000000
  70
    32
  0
VERTEX
  8
AM_VIS
  5
AF1
 10
13.9177
 20
4.56370
 30
0.000000
  70
    32
  0
VERTEX
  8
AM_VIS
  5
AF2
 10
13.9193
 20
4.56254
 30
0.000000
  70
    32
  0
VERTEX
  8
AM_VIS
  5
AF3
 10
13.9209
 20
4.56136
 30
0.000000
  70
    32
  0
VERTEX
  8
AM_VIS
  5
AF4
 10
13.9226
 20
4.56016
 30
0.000000
  70
    32
  0
VERTEX
  8
AM_VIS
  5
AF5
 10
13.9242
 20
4.55895
 30
0.000000
  70
    32
  0
VERTEX
  8
AM_VIS
  5
AF6
 10
13.9258
 20
4.55773
 30
0.000000
  70
    32
  0
VERTEX
  8
AM_VIS
  5
AF7
 10
13.9275
 20
4.55649
 30
0.000000
  70
    32
  0
VERTEX
  8
AM_VIS
  5
AF8
 10
13.9291
 20
4.55524
 30
0.000000
  70
    32
  0
VERTEX
  8
AM_VIS
  5
AF9
 10
13.9308
 20
4.55398
 30
0.000000
  70
    32
  0
VERTEX
  8
AM_VIS
  5
AFA
 10
13.9324
 20
4.55269
 30
0.000000
  70
    32
  0
VERTEX
  8
AM_VIS
  5
AFB
 10
13.9341
 20
4.55140
 30
0.000000
  70
    32
  0
VERTEX
  8
AM_VIS
  5
AFC
 10
13.9358
 20
4.55009
 30
0.000000
  70
    32
  0
VERTEX
  8
AM_VIS
  5
AFD
 10
13.9374
 20
4.54876
 30
0.000000
  70
    32
  0
VERTEX
  8
AM_VIS
  5
AFE
 10
13.9391
 20
4.54743
 30
0.000000
  70
    32
  0
VERTEX
  8
AM_VIS
  5
AFF
 10
13.9408
 20
4.54607
 30
0.000000
  70
    32
  0
VERTEX
  8
AM_VIS
  5
B00
 10
13.9425
 20
4.54470
 30
0.000000
  70
    32
  0
VERTEX
  8
AM_VIS
  5
B01
 10
13.9442
 20
4.54332
 30
0.000000
  70
    32
  0
VERTEX
  8
AM_VIS
  5
B02
 10
13.9459
 20
4.54192
 30
0.000000
  70
    32
  0
VERTEX
  8
AM_VIS
  5
B03
 10
13.9476
 20
4.54050
 30
0.000000
  70
    32
  0
VERTEX
  8
AM_VIS
  5
B04
 10
13.9493
 20
4.53907
 30
0.000000
  70
    32
  0
VERTEX
  8
AM_VIS
  5
B05
 10
13.9510
 20
4.53762
 30
0.000000
  70
    32
  0
VERTEX
  8
AM_VIS
  5
B06
 10
13.9528
 20
4.53616
 30
0.000000
  70
    32
  0
VERTEX
  8
AM_VIS
  5
B07
 10
13.9545
 20
4.53468
 30
0.000000
  70
    32
  0
VERTEX
  8
AM_VIS
  5
B08
 10
13.9562
 20
4.53319
 30
0.000000
  70
    32
  0
VERTEX
  8
AM_VIS
  5
B09
 10
13.9580
 20
4.53168
 30
0.000000
  70
    32
  0
VERTEX
  8
AM_VIS
  5
B0A
 10
13.9597
 20
4.53015
 30
0.000000
  70
    32
  0
VERTEX
  8
AM_VIS
  5
B0B
 10
13.9614
 20
4.52861
 30
0.000000
  70
    32
  0
VERTEX
  8
AM_VIS
  5
B0C
 10
13.9632
 20
4.52705
 30
0.000000
  70
    32
  0
VERTEX
  8
AM_VIS
  5
B0D
 10
13.9649
 20
4.52548
 30
0.000000
  70
    32
  0
VERTEX
  8
AM_VIS
  5
B0E
 10
13.9667
 20
4.52389
 30
0.000000
  70
    32
  0
VERTEX
  8
AM_VIS
  5
B0F
 10
13.9685
 20
4.52228
 30
0.000000
  70
    32
  0
VERTEX
  8
AM_VIS
  5
B10
 10
13.9702
 20
4.52066
 30
0.000000
  70
    32
  0
VERTEX
  8
AM_VIS
  5
B11
 10
13.9720
 20
4.51902
 30
0.000000
  70
    32
  0
VERTEX
  8
AM_VIS
  5
B12
 10
13.9738
 20
4.51736
 30
0.000000
  70
    32
  0
VERTEX
  8
AM_VIS
  5
B13
 10
13.9755
 20
4.51568
 30
0.000000
  70
    32
  0
VERTEX
  8
AM_VIS
  5
B14
 10
13.9773
 20
4.51399
 30
0.000000
  70
    32
  0
VERTEX
  8
AM_VIS
  5
B15
 10
13.9791
 20
4.51228
 30
0.000000
  70
    32
  0
VERTEX
  8
AM_VIS
  5
B16
 10
13.9809
 20
4.51056
 30
0.000000
  70
    32
  0
VERTEX
  8
AM_VIS
  5
B17
 10
13.9827
 20
4.50882
 30
0.000000
  70
    32
  0
VERTEX
  8
AM_VIS
  5
B18
 10
13.9845
 20
4.50706
 30
0.000000
  70
    32
  0
VERTEX
  8
AM_VIS
  5
B19
 10
13.9863
 20
4.50528
 30
0.000000
  70
    32
  0
VERTEX
  8
AM_VIS
  5
B1A
 10
13.9880
 20
4.50348
 30
0.000000
  70
    32
  0
VERTEX
  8
AM_VIS
  5
B1B
 10
13.9898
 20
4.50167
 30
0.000000
  70
    32
  0
VERTEX
  8
AM_VIS
  5
B1C
 10
13.9916
 20
4.49984
 30
0.000000
  70
    32
  0
VERTEX
  8
AM_VIS
  5
B1D
 10
13.9935
 20
4.49799
 30
0.000000
  70
    32
  0
VERTEX
  8
AM_VIS
  5
B1E
 10
13.9953
 20
4.49612
 30
0.000000
  70
    32
  0
VERTEX
  8
AM_VIS
  5
B1F
 10
13.9971
 20
4.49424
 30
0.000000
  70
    32
  0
VERTEX
  8
AM_VIS
  5
B20
 10
13.9989
 20
4.49234
 30
0.000000
  70
    32
  0
VERTEX
  8
AM_VIS
  5
B21
 10
14.0007
 20
4.49042
 30
0.000000
  70
    32
  0
VERTEX
  8
AM_VIS
  5
B22
 10
14.0025
 20
4.48848
 30
0.000000
  70
    32
  0
VERTEX
  8
AM_VIS
  5
B23
 10
14.0043
 20
4.48652
 30
0.000000
  70
    32
  0
VERTEX
  8
AM_VIS
  5
B24
 10
14.0061
 20
4.48454
 30
0.000000
  70
    32
  0
VERTEX
  8
AM_VIS
  5
B25
 10
14.0080
 20
4.48255
 30
0.000000
  70
    32
  0
VERTEX
  8
AM_VIS
  5
B26
 10
14.0098
 20
4.48053
 30
0.000000
  70
    32
  0
VERTEX
  8
AM_VIS
  5
B27
 10
14.0116
 20
4.47850
 30
0.000000
  70
    32
  0
VERTEX
  8
AM_VIS
  5
B28
 10
14.0134
 20
4.47645
 30
0.000000
  70
    32
  0
VERTEX
  8
AM_VIS
  5
B29
 10
14.0153
 20
4.47438
 30
0.000000
  70
    32
  0
VERTEX
  8
AM_VIS
  5
B2A
 10
14.0171
 20
4.47229
 30
0.000000
  70
    32
  0
VERTEX
  8
AM_VIS
  5
B2B
 10
14.0189
 20
4.47018
 30
0.000000
  70
    32
  0
VERTEX
  8
AM_VIS
  5
B2C
 10
14.0207
 20
4.46805
 30
0.000000
  70
    32
  0
VERTEX
  8
AM_VIS
  5
B2D
 10
14.0226
 20
4.46591
 30
0.000000
  70
    32
  0
VERTEX
  8
AM_VIS
  5
B2E
 10
14.0244
 20
4.46374
 30
0.000000
  70
    32
  0
VERTEX
  8
AM_VIS
  5
B2F
 10
14.0262
 20
4.46156
 30
0.000000
  70
    32
  0
VERTEX
  8
AM_VIS
  5
B30
 10
14.0281
 20
4.45935
 30
0.000000
  70
    32
  0
VERTEX
  8
AM_VIS
  5
B31
 10
14.0299
 20
4.45712
 30
0.000000
  70
    32
  0
VERTEX
  8
AM_VIS
  5
B32
 10
14.0317
 20
4.45488
 30
0.000000
  70
    32
  0
VERTEX
  8
AM_VIS
  5
B33
 10
14.0336
 20
4.45261
 30
0.000000
  70
    32
  0
VERTEX
  8
AM_VIS
  5
B34
 10
14.0354
 20
4.45033
 30
0.000000
  70
    32
  0
VERTEX
  8
AM_VIS
  5
B35
 10
14.0372
 20
4.44804
 30
0.000000
  70
    32
  0
VERTEX
  8
AM_VIS
  5
B36
 10
14.0390
 20
4.44574
 30
0.000000
  70
    32
  0
VERTEX
  8
AM_VIS
  5
B37
 10
14.0409
 20
4.44342
 30
0.000000
  70
    32
  0
VERTEX
  8
AM_VIS
  5
B38
 10
14.0427
 20
4.44110
 30
0.000000
  70
    32
  0
VERTEX
  8
AM_VIS
  5
B39
 10
14.0444
 20
4.43877
 30
0.000000
  70
    32
  0
VERTEX
  8
AM_VIS
  5
B3A
 10
14.0462
 20
4.43643
 30
0.000000
  70
    32
  0
VERTEX
  8
AM_VIS
  5
B3B
 10
14.0480
 20
4.43408
 30
0.000000
  70
    32
  0
VERTEX
  8
AM_VIS
  5
B3C
 10
14.0498
 20
4.43172
 30
0.000000
  70
    32
  0
VERTEX
  8
AM_VIS
  5
B3D
 10
14.0515
 20
4.42935
 30
0.000000
  70
    32
  0
VERTEX
  8
AM_VIS
  5
B3E
 10
14.0533
 20
4.42697
 30
0.000000
  70
    32
  0
VERTEX
  8
AM_VIS
  5
B3F
 10
14.0550
 20
4.42458
 30
0.000000
  70
    32
  0
VERTEX
  8
AM_VIS
  5
B40
 10
14.0568
 20
4.42218
 30
0.000000
  70
    32
  0
VERTEX
  8
AM_VIS
  5
B41
 10
14.0585
 20
4.41978
 30
0.000000
  70
    32
  0
VERTEX
  8
AM_VIS
  5
B42
 10
14.0602
 20
4.41736
 30
0.000000
  70
    32
  0
VERTEX
  8
AM_VIS
  5
B43
 10
14.0619
 20
4.41494
 30
0.000000
  70
    32
  0
VERTEX
  8
AM_VIS
  5
B44
 10
14.0636
 20
4.41251
 30
0.000000
  70
    32
  0
VERTEX
  8
AM_VIS
  5
B45
 10
14.0653
 20
4.41007
 30
0.000000
  70
    32
  0
VERTEX
  8
AM_VIS
  5
B46
 10
14.0670
 20
4.40762
 30
0.000000
  70
    32
  0
VERTEX
  8
AM_VIS
  5
B47
 10
14.0687
 20
4.40516
 30
0.000000
  70
    32
  0
VERTEX
  8
AM_VIS
  5
B48
 10
14.0704
 20
4.40270
 30
0.000000
  70
    32
  0
VERTEX
  8
AM_VIS
  5
B49
 10
14.0720
 20
4.40022
 30
0.000000
  70
    32
  0
VERTEX
  8
AM_VIS
  5
B4A
 10
14.0737
 20
4.39774
 30
0.000000
  70
    32
  0
VERTEX
  8
AM_VIS
  5
B4B
 10
14.0753
 20
4.39525
 30
0.000000
  70
    32
  0
VERTEX
  8
AM_VIS
  5
B4C
 10
14.0770
 20
4.39275
 30
0.000000
  70
    32
  0
VERTEX
  8
AM_VIS
  5
B4D
 10
14.0786
 20
4.39025
 30
0.000000
  70
    32
  0
VERTEX
  8
AM_VIS
  5
B4E
 10
14.0802
 20
4.38773
 30
0.000000
  70
    32
  0
VERTEX
  8
AM_VIS
  5
B4F
 10
14.0818
 20
4.38521
 30
0.000000
  70
    32
  0
VERTEX
  8
AM_VIS
  5
B50
 10
14.0834
 20
4.38268
 30
0.000000
  70
    32
  0
VERTEX
  8
AM_VIS
  5
B51
 10
14.0850
 20
4.38015
 30
0.000000
  70
    32
  0
VERTEX
  8
AM_VIS
  5
B52
 10
14.0866
 20
4.37760
 30
0.000000
  70
    32
  0
VERTEX
  8
AM_VIS
  5
B53
 10
14.0882
 20
4.37505
 30
0.000000
  70
    32
  0
VERTEX
  8
AM_VIS
  5
B54
 10
14.0897
 20
4.37250
 30
0.000000
  70
    32
  0
VERTEX
  8
AM_VIS
  5
B55
 10
14.0913
 20
4.36993
 30
0.000000
  70
    32
  0
VERTEX
  8
AM_VIS
  5
B56
 10
14.0928
 20
4.36736
 30
0.000000
  70
    32
  0
VERTEX
  8
AM_VIS
  5
B57
 10
14.0943
 20
4.36478
 30
0.000000
  70
    32
  0
VERTEX
  8
AM_VIS
  5
B58
 10
14.0959
 20
4.36220
 30
0.000000
  70
    32
  0
VERTEX
  8
AM_VIS
  5
B59
 10
14.0974
 20
4.35960
 30
0.000000
  70
    32
  0
VERTEX
  8
AM_VIS
  5
B5A
 10
14.0989
 20
4.35701
 30
0.000000
  70
    32
  0
VERTEX
  8
AM_VIS
  5
B5B
 10
14.1004
 20
4.35440
 30
0.000000
  70
    32
  0
VERTEX
  8
AM_VIS
  5
B5C
 10
14.1019
 20
4.35179
 30
0.000000
  70
    32
  0
VERTEX
  8
AM_VIS
  5
B5D
 10
14.1034
 20
4.34917
 30
0.000000
  70
    32
  0
VERTEX
  8
AM_VIS
  5
B5E
 10
14.1048
 20
4.34655
 30
0.000000
  70
    32
  0
VERTEX
  8
AM_VIS
  5
B5F
 10
14.1063
 20
4.34392
 30
0.000000
  70
    32
  0
VERTEX
  8
AM_VIS
  5
B60
 10
14.1077
 20
4.34128
 30
0.000000
  70
    32
  0
VERTEX
  8
AM_VIS
  5
B61
 10
14.1092
 20
4.33864
 30
0.000000
  70
    32
  0
VERTEX
  8
AM_VIS
  5
B62
 10
14.1106
 20
4.33599
 30
0.000000
  70
    32
  0
VERTEX
  8
AM_VIS
  5
B63
 10
14.1120
 20
4.33334
 30
0.000000
  70
    32
  0
VERTEX
  8
AM_VIS
  5
B64
 10
14.1134
 20
4.33068
 30
0.000000
  70
    32
  0
VERTEX
  8
AM_VIS
  5
B65
 10
14.1148
 20
4.32801
 30
0.000000
  70
    32
  0
VERTEX
  8
AM_VIS
  5
B66
 10
14.1162
 20
4.32534
 30
0.000000
  70
    32
  0
VERTEX
  8
AM_VIS
  5
B67
 10
14.1176
 20
4.32267
 30
0.000000
  70
    32
  0
VERTEX
  8
AM_VIS
  5
B68
 10
14.1189
 20
4.31999
 30
0.000000
  70
    32
  0
VERTEX
  8
AM_VIS
  5
B69
 10
14.1203
 20
4.31730
 30
0.000000
  70
    32
  0
VERTEX
  8
AM_VIS
  5
B6A
 10
14.1217
 20
4.31461
 30
0.000000
  70
    32
  0
VERTEX
  8
AM_VIS
  5
B6B
 10
14.1230
 20
4.31191
 30
0.000000
  70
    32
  0
VERTEX
  8
AM_VIS
  5
B6C
 10
14.1243
 20
4.30921
 30
0.000000
  70
    32
  0
VERTEX
  8
AM_VIS
  5
B6D
 10
14.1256
 20
4.30650
 30
0.000000
  70
    32
  0
VERTEX
  8
AM_VIS
  5
B6E
 10
14.1269
 20
4.30379
 30
0.000000
  70
    32
  0
VERTEX
  8
AM_VIS
  5
B6F
 10
14.1282
 20
4.30108
 30
0.000000
  70
    32
  0
VERTEX
  8
AM_VIS
  5
B70
 10
14.1295
 20
4.29836
 30
0.000000
  70
    32
  0
VERTEX
  8
AM_VIS
  5
B71
 10
14.1308
 20
4.29563
 30
0.000000
  70
    32
  0
VERTEX
  8
AM_VIS
  5
B72
 10
14.1321
 20
4.29291
 30
0.000000
  70
    32
  0
VERTEX
  8
AM_VIS
  5
B73
 10
14.1333
 20
4.29017
 30
0.000000
  70
    32
  0
VERTEX
  8
AM_VIS
  5
B74
 10
14.1345
 20
4.28744
 30
0.000000
  70
    32
  0
VERTEX
  8
AM_VIS
  5
B75
 10
14.1358
 20
4.28470
 30
0.000000
  70
    32
  0
VERTEX
  8
AM_VIS
  5
B76
 10
14.1370
 20
4.28195
 30
0.000000
  70
    32
  0
VERTEX
  8
AM_VIS
  5
B77
 10
14.1382
 20
4.27920
 30
0.000000
  70
    32
  0
VERTEX
  8
AM_VIS
  5
B78
 10
14.1394
 20
4.27645
 30
0.000000
  70
    32
  0
VERTEX
  8
AM_VIS
  5
B79
 10
14.1406
 20
4.27369
 30
0.000000
  70
    32
  0
VERTEX
  8
AM_VIS
  5
B7A
 10
14.1418
 20
4.27093
 30
0.000000
  70
    32
  0
VERTEX
  8
AM_VIS
  5
B7B
 10
14.1429
 20
4.26817
 30
0.000000
  70
    32
  0
VERTEX
  8
AM_VIS
  5
B7C
 10
14.1441
 20
4.26540
 30
0.000000
  70
    32
  0
VERTEX
  8
AM_VIS
  5
B7D
 10
14.1452
 20
4.26263
 30
0.000000
  70
    32
  0
VERTEX
  8
AM_VIS
  5
B7E
 10
14.1463
 20
4.25986
 30
0.000000
  70
    32
  0
VERTEX
  8
AM_VIS
  5
B7F
 10
14.1475
 20
4.25708
 30
0.000000
  70
    32
  0
VERTEX
  8
AM_VIS
  5
B80
 10
14.1486
 20
4.25430
 30
0.000000
  70
    32
  0
VERTEX
  8
AM_VIS
  5
B81
 10
14.1497
 20
4.25152
 30
0.000000
  70
    32
  0
VERTEX
  8
AM_VIS
  5
B82
 10
14.1508
 20
4.24873
 30
0.000000
  70
    32
  0
VERTEX
  8
AM_VIS
  5
B83
 10
14.1518
 20
4.24595
 30
0.000000
  70
    32
  0
VERTEX
  8
AM_VIS
  5
B84
 10
14.1529
 20
4.24316
 30
0.000000
  70
    32
  0
VERTEX
  8
AM_VIS
  5
B85
 10
14.1539
 20
4.24036
 30
0.000000
  70
    32
  0
VERTEX
  8
AM_VIS
  5
B86
 10
14.1550
 20
4.23757
 30
0.000000
  70
    32
  0
VERTEX
  8
AM_VIS
  5
B87
 10
14.1560
 20
4.23477
 30
0.000000
  70
    32
  0
VERTEX
  8
AM_VIS
  5
B88
 10
14.1570
 20
4.23197
 30
0.000000
  70
    32
  0
VERTEX
  8
AM_VIS
  5
B89
 10
14.1580
 20
4.22917
 30
0.000000
  70
    32
  0
VERTEX
  8
AM_VIS
  5
B8A
 10
14.1590
 20
4.22636
 30
0.000000
  70
    32
  0
VERTEX
  8
AM_VIS
  5
B8B
 10
14.1600
 20
4.22355
 30
0.000000
  70
    32
  0
VERTEX
  8
AM_VIS
  5
B8C
 10
14.1610
 20
4.22075
 30
0.000000
  70
    32
  0
VERTEX
  8
AM_VIS
  5
B8D
 10
14.1619
 20
4.21794
 30
0.000000
  70
    32
  0
VERTEX
  8
AM_VIS
  5
B8E
 10
14.1629
 20
4.21512
 30
0.000000
  70
    32
  0
VERTEX
  8
AM_VIS
  5
B8F
 10
14.1638
 20
4.21231
 30
0.000000
  70
    32
  0
VERTEX
  8
AM_VIS
  5
B90
 10
14.1647
 20
4.20950
 30
0.000000
  70
    32
  0
VERTEX
  8
AM_VIS
  5
B91
 10
14.1656
 20
4.20668
 30
0.000000
  70
    32
  0
VERTEX
  8
AM_VIS
  5
B92
 10
14.1665
 20
4.20386
 30
0.000000
  70
    32
  0
VERTEX
  8
AM_VIS
  5
B93
 10
14.1674
 20
4.20104
 30
0.000000
  70
    32
  0
VERTEX
  8
AM_VIS
  5
B94
 10
14.1683
 20
4.19822
 30
0.000000
  70
    32
  0
VERTEX
  8
AM_VIS
  5
B95
 10
14.1691
 20
4.19540
 30
0.000000
  70
    32
  0
VERTEX
  8
AM_VIS
  5
B96
 10
14.1700
 20
4.19258
 30
0.000000
  70
    32
  0
VERTEX
  8
AM_VIS
  5
B97
 10
14.1708
 20
4.18975
 30
0.000000
  70
    32
  0
VERTEX
  8
AM_VIS
  5
B98
 10
14.1716
 20
4.18693
 30
0.000000
  70
    32
  0
VERTEX
  8
AM_VIS
  5
B99
 10
14.1724
 20
4.18410
 30
0.000000
  70
    32
  0
VERTEX
  8
AM_VIS
  5
B9A
 10
14.1732
 20
4.18128
 30
0.000000
  70
    32
  0
VERTEX
  8
AM_VIS
  5
B9B
 10
14.1740
 20
4.17844
 30
0.000000
  70
    32
  0
VERTEX
  8
AM_VIS
  5
B9C
 10
14.1748
 20
4.17561
 30
0.000000
  70
    32
  0
VERTEX
  8
AM_VIS
  5
B9D
 10
14.1755
 20
4.17277
 30
0.000000
  70
    32
  0
VERTEX
  8
AM_VIS
  5
B9E
 10
14.1763
 20
4.16993
 30
0.000000
  70
    32
  0
VERTEX
  8
AM_VIS
  5
B9F
 10
14.1770
 20
4.16709
 30
0.000000
  70
    32
  0
VERTEX
  8
AM_VIS
  5
BA0
 10
14.1777
 20
4.16425
 30
0.000000
  70
    32
  0
VERTEX
  8
AM_VIS
  5
BA1
 10
14.1784
 20
4.16140
 30
0.000000
  70
    32
  0
VERTEX
  8
AM_VIS
  5
BA2
 10
14.1791
 20
4.15855
 30
0.000000
  70
    32
  0
VERTEX
  8
AM_VIS
  5
BA3
 10
14.1798
 20
4.15570
 30
0.000000
  70
    32
  0
VERTEX
  8
AM_VIS
  5
BA4
 10
14.1805
 20
4.15284
 30
0.000000
  70
    32
  0
VERTEX
  8
AM_VIS
  5
BA5
 10
14.1811
 20
4.14999
 30
0.000000
  70
    32
  0
VERTEX
  8
AM_VIS
  5
BA6
 10
14.1818
 20
4.14713
 30
0.000000
  70
    32
  0
VERTEX
  8
AM_VIS
  5
BA7
 10
14.1824
 20
4.14427
 30
0.000000
  70
    32
  0
VERTEX
  8
AM_VIS
  5
BA8
 10
14.1830
 20
4.14140
 30
0.000000
  70
    32
  0
VERTEX
  8
AM_VIS
  5
BA9
 10
14.1836
 20
4.13854
 30
0.000000
  70
    32
  0
VERTEX
  8
AM_VIS
  5
BAA
 10
14.1842
 20
4.13567
 30
0.000000
  70
    32
  0
VERTEX
  8
AM_VIS
  5
BAB
 10
14.1848
 20
4.13280
 30
0.000000
  70
    32
  0
VERTEX
  8
AM_VIS
  5
BAC
 10
14.1854
 20
4.12992
 30
0.000000
  70
    32
  0
VERTEX
  8
AM_VIS
  5
BAD
 10
14.1859
 20
4.12705
 30
0.000000
  70
    32
  0
VERTEX
  8
AM_VIS
  5
BAE
 10
14.1865
 20
4.12417
 30
0.000000
  70
    32
  0
VERTEX
  8
AM_VIS
  5
BAF
 10
14.1870
 20
4.12129
 30
0.000000
  70
    32
  0
VERTEX
  8
AM_VIS
  5
BB0
 10
14.1875
 20
4.11841
 30
0.000000
  70
    32
  0
VERTEX
  8
AM_VIS
  5
BB1
 10
14.1880
 20
4.11553
 30
0.000000
  70
    32
  0
VERTEX
  8
AM_VIS
  5
BB2
 10
14.1885
 20
4.11265
 30
0.000000
  70
    32
  0
VERTEX
  8
AM_VIS
  5
BB3
 10
14.1890
 20
4.10976
 30
0.000000
  70
    32
  0
VERTEX
  8
AM_VIS
  5
BB4
 10
14.1894
 20
4.10687
 30
0.000000
  70
    32
  0
VERTEX
  8
AM_VIS
  5
BB5
 10
14.1899
 20
4.10398
 30
0.000000
  70
    32
  0
VERTEX
  8
AM_VIS
  5
BB6
 10
14.1903
 20
4.10109
 30
0.000000
  70
    32
  0
VERTEX
  8
AM_VIS
  5
BB7
 10
14.1907
 20
4.09819
 30
0.000000
  70
    32
  0
VERTEX
  8
AM_VIS
  5
BB8
 10
14.1911
 20
4.09530
 30
0.000000
  70
    32
  0
VERTEX
  8
AM_VIS
  5
BB9
 10
14.1915
 20
4.09240
 30
0.000000
  70
    32
  0
VERTEX
  8
AM_VIS
  5
BBA
 10
14.1919
 20
4.08950
 30
0.000000
  70
    32
  0
VERTEX
  8
AM_VIS
  5
BBB
 10
14.1923
 20
4.08660
 30
0.000000
  70
    32
  0
VERTEX
  8
AM_VIS
  5
BBC
 10
14.1926
 20
4.08370
 30
0.000000
  70
    32
  0
VERTEX
  8
AM_VIS
  5
BBD
 10
14.1929
 20
4.08079
 30
0.000000
  70
    32
  0
VERTEX
  8
AM_VIS
  5
BBE
 10
14.1933
 20
4.07789
 30
0.000000
  70
    32
  0
VERTEX
  8
AM_VIS
  5
BBF
 10
14.1936
 20
4.07498
 30
0.000000
  70
    32
  0
VERTEX
  8
AM_VIS
  5
BC0
 10
14.1939
 20
4.07207
 30
0.000000
  70
    32
  0
VERTEX
  8
AM_VIS
  5
BC1
 10
14.1941
 20
4.06916
 30
0.000000
  70
    32
  0
VERTEX
  8
AM_VIS
  5
BC2
 10
14.1944
 20
4.06625
 30
0.000000
  70
    32
  0
VERTEX
  8
AM_VIS
  5
BC3
 10
14.1946
 20
4.06334
 30
0.000000
  70
    32
  0
VERTEX
  8
AM_VIS
  5
BC4
 10
14.1949
 20
4.06043
 30
0.000000
  70
    32
  0
VERTEX
  8
AM_VIS
  5
BC5
 10
14.1951
 20
4.05751
 30
0.000000
  70
    32
  0
VERTEX
  8
AM_VIS
  5
BC6
 10
14.1953
 20
4.05460
 30
0.000000
  70
    32
  0
VERTEX
  8
AM_VIS
  5
BC7
 10
14.1955
 20
4.05168
 30
0.000000
  70
    32
  0
VERTEX
  8
AM_VIS
  5
BC8
 10
14.1957
 20
4.04876
 30
0.000000
  70
    32
  0
VERTEX
  8
AM_VIS
  5
BC9
 10
14.1958
 20
4.04584
 30
0.000000
  70
    32
  0
VERTEX
  8
AM_VIS
  5
BCA
 10
14.1960
 20
4.04292
 30
0.000000
  70
    32
  0
VERTEX
  8
AM_VIS
  5
BCB
 10
14.1961
 20
4.04000
 30
0.000000
  70
    32
  0
VERTEX
  8
AM_VIS
  5
BCC
 10
14.1962
 20
4.03707
 30
0.000000
  70
    32
  0
VERTEX
  8
AM_VIS
  5
BCD
 10
14.1963
 20
4.03415
 30
0.000000
  70
    32
  0
VERTEX
  8
AM_VIS
  5
BCE
 10
14.1964
 20
4.03122
 30
0.000000
  70
    32
  0
VERTEX
  8
AM_VIS
  5
BCF
 10
14.1965
 20
4.02830
 30
0.000000
  70
    32
  0
VERTEX
  8
AM_VIS
  5
BD0
 10
14.1965
 20
4.02537
 30
0.000000
  70
    32
  0
VERTEX
  8
AM_VIS
  5
BD1
 10
14.1966
 20
4.02244
 30
0.000000
  70
    32
  0
VERTEX
  8
AM_VIS
  5
BD2
 10
14.1966
 20
4.01952
 30
0.000000
  70
    32
  0
SEQEND
  8
AM_VIS
  5
BD3
  0
LINE
  5
40
  8
AM_VIS
 10
14.340968614468871
 20
3.8841733679917732
 30
0.0
 11
14.46018919737284
 21
3.9767808094619972
 31
0.0
  0
LINE
  5
41
  8
AM_VIS
 10
14.106164809089879
 20
3.8628785503133982
 30
0.0
 11
14.1740866880304
 21
3.9805226931439051
 31
0.0
  0
ARC
  5
42
  8
AM_VIS
 10
13.69157550122001
 20
4.2712116069451547
 30
0.0
 40
0.3692967596140897
 50
289.2943156095177
 51
328.37178989422
  0
ARC
  5
43
  8
AM_VIS
 10
13.685013457309919
 20
4.2750002047630851
 30
0.0
 40
0.3692967596141095
 50
151.62821010578111
 51
190.70568439048131
  0
ARC
  5
44
  8
AM_VIS
 10
13.68305028399236
 20
4.2640226931971741
 30
0.0
 40
0.365625
 50
189.0723075591805
 51
290.9276924408195
  0
ARC
  5
45
  8
AM_VIS
 10
13.681087110674801
 20
4.2530451816312587
 30
0.0
 40
0.3692967596140986
 50
331.62821010578062
 51
10.70568439048199
  0
LINE
  5
46
  8
AM_VIS
 10
14.174086687934331
 20
3.98052269319937
 30
0.0
 11
14.196599718234401
 21
4.0195164055018999
 31
0.0
  0
ARC
  5
47
  8
AM_VIS
 10
13.67452506676471
 20
4.2568337794491891
 30
0.0
 40
0.3692967596140915
 50
109.29431560951799
 51
148.37178989422
  0
CIRCLE
  5
48
  8
AM_VIS
 10
13.68305028399236
 20
4.2640226931971741
 30
0.0
 40
0.28125
  0
ARC
  5
49
  8
AM_VIS
 10
13.68305028399236
 20
4.2640226931971714
 30
0.0
 40
0.365625
 50
9.0723075591804516
 51
110.9276924408196
  0
LINE
  5
4A
  8
AM_VIS
 10
15.253960836643961
 20
4.5933619302214437
 30
0.0
 11
14.46018919737284
 21
3.9767808094619972
 31
0.0
  0
LINE
  5
4B
  8
AM_VIS
 10
14.2988484096532
 20
5.8229505947703482
 30
0.0
 11
13.638840635458971
 21
5.0341651056278032
 31
0.0
  0
LINE
  5
4C
  8
AM_VIS
 10
13.965528276806349
 20
5.997800817679062
 30
0.0
 11
13.606935960394679
 21
5.0509013870494348
 31
0.0
  0
LINE
  5
4D
  8
AM_VIS
 10
13.00427266097596
 20
3.4608000793430609
 30
0.0
 11
14.188542792212729
 21
2.7770614002802789
 31
0.0
  0
LINE
  5
4E
  8
AM_HID
 10
12.869272660975961
 20
6.3174447384334877
 30
0.0
 11
12.869272660975961
 21
3.5387423656836621
 31
0.0
  0
LINE
  5
4F
  8
AM_HID
 10
11.06927266097596
 20
6.3174447384334877
 30
0.0
 11
11.06927266097596
 21
4.577972850224989
 31
0.0
  0
LINE
  5
50
  8
AM_HID
 10
13.00427266097596
 20
5.6951456211069118
 30
0.0
 11
15.15604279221273
 21
4.452820556603168
 31
0.0
  0
LINE
  5
51
  8
AM_HID
 10
13.00427266097596
 20
3.6166846520242588
 30
0.0
 11
14.25604279221273
 21
2.893974829791178
 31
0.0
  0
LINE
  5
52
  8
AM_VIS
 10
13.00427266097596
 20
6.3174447384334877
 30
0.0
 11
13.00427266097596
 21
6.2339664107195576
 31
0.0
  0
LINE
  5
53
  8
AM_VIS
 10
10.93427266097596
 20
6.3174447384334877
 30
0.0
 11
10.93427266097596
 21
4.6559151365655884
 31
0.0
  0
LINE
  5
54
  8
AM_HID
 10
13.00427266097596
 20
5.6951456211069118
 30
0.0
 11
13.00427266097596
 21
3.6166846520242588
 31
0.0
  0
LINE
  5
55
  8
AM_VIS
 10
14.2988484096532
 20
5.8229505947703482
 30
0.0
 11
15.253960836643961
 21
4.5933619302214428
 31
0.0
  0
LINE
  5
56
  8
AM_VIS
 10
13.965528276806349
 20
5.9978008176790603
 30
0.0
 11
14.2988484096532
 21
5.8229505947703482
 31
0.0
  0
LINE
  5
57
  8
AM_VIS
 10
13.00427266097596
 20
6.2339664107195603
 30
0.0
 11
13.965528276806349
 21
5.997800817679062
 31
0.0
  0
LINE
  5
15A
  8
0
 10
11.96927266097596
 20
4.0583576079543251
 30
0.0
 11
11.96927266097596
 21
1.7317960881862939
 31
0.0
  0
LINE
  5
15B
  8
0
 10
14.706042792212729
 20
3.673397693197173
 30
0.0
 11
16.72090417179918
 21
2.5101169333131561
 31
0.0
  0
LINE
  5
15C
  8
0
 10
11.96927266097596
 20
1.675546088186294
 30
0.0
 11
11.96927266097596
 21
0.4082287473624162
 31
0.0
  0
ARC
  5
15D
  8
0
 10
11.96927266097596
 20
5.2534726651768482
 30
0.0
 40
4.6832439178144307
 50
271.37638147794809
 51
304.75623548197558
  0
ARC
  5
15E
  8
0
 10
11.96927266097596
 20
5.2534726651768482
 30
0.0
 40
4.6832439178144307
 50
308.97569669875031
 51
328.62361852205191
  0
SOLID
  5
15F
  8
0
 10
12.0819897504318
 20
0.5528313267316634
 30
0.0
 11
12.081539341476599
 21
0.5903286217244097
 31
0.0
 12
11.96927266097596
 22
0.5702287473624162
 32
0.0
 13
11.96927266097596
 23
0.5702287473624162
 33
0.0
  0
SOLID
  5
160
  8
0
 10
15.95154052386154
 20
2.8246748461385218
 30
0.0
 11
15.98378892942085
 21
2.8055361330448489
 31
0.0
 12
16.02508086592222
 22
2.9118507062696279
 32
0.0
 13
16.02508086592222
 23
2.9118507062696279
 33
0.0
  0
INSERT
  5
161
  8
0
  2
*U2
 10
0.0
 20
0.0
 30
0.0
  0
INSERT
  5
162
  8
0
  2
*U3
 10
0.0
 20
0.0
 30
0.0
  0
ENDSEC
  0
EOF
